Song name
# A B C D E F G H I J K L M N O P Q R S T U V W X Y Z

Gamma Ray - From The Ashes tab

Intro clean

--------------------------------|--------------------------------|
--------------------------------|--------------------------------|
--------------------------------|--------------------------------|
-9-9-9----7---------------------|-9-9-9----7---------------------|
-------10---9-10---7-9-7-9-10-7-|-------10---9-10---7-9-7-9-10-7-|
--------------------------------|--------------------------------|

--------------------------------|--------------------------------|
--------------------------------|--------------------------------|
--------------------------------|--------------------------------|
-9-9-9----7---------------------|-9-9-9----7---10--9-7----7------|
-------10---9-10---7-9-7-9-10-7-|-------10---9---------10---10-9-|
--------------------------------|--------------------------------|

Intro distortion

--------------------------------|--------------------------------|
--------------------------------|--------------------------------|
--------------------------------|--------------------------------|
-9-9-9----7---------------------|-9-9-9----7---------------------|
-------10---9-10---7-9-7-9-10-7-|-------10---9-10---7-9-7-9-10-7-|
--------------------------------|--------------------------------| Guitar 1

--------------------------------|--------------------------------|
--------------------------------|--------------------------------|
--------------------------------|--------------------------------|
-9-9-9----7---------------------|-9-9-9----7---10--9-7----7------|
-------10---9-10---7-9-7-9-10-7-|-------10---9---------10---10-9-|
--------------------------------|--------------------------------| 

-----------------------------------------|
-----------------------------------------|
-16-16-16-----14-------------------------|
-----------17----16-17-14-16-14-16-17-14-|
-----------------------------------------|
-----------------------------------------| Guitar 2

-----------------------------------------|
-----------------------------------------|
-16-16-16-----14-------------------------|
-----------17----16-17-14-16-14-16-17-14-|
-----------------------------------------|
-----------------------------------------|

-----------------------------------------|
-----------------------------------------|
-16-16-16-----14-------------------------|
-----------17----16-17-14-16-14-16-17-14-|
-----------------------------------------|
-----------------------------------------|

-----------------------------------------|
-----------------------------------------|
-16-16-16-----14----17--16-14----14------|
-----------17----16-----------17---17-16-|
-----------------------------------------|
-----------------------------------------|
Tap to rate this tab
 
# A B C D E F G H I J K L M N O P Q R S T U V W X Y Z