Song name
# A B C D E F G H I J K L M N O P Q R S T U V W X Y Z

Gamma Ray - Fight tab

--------------------------|--------------------------|
--5--0--7--0--8--0--5--0--|--7--8--7--5--4--5--4--0--|
--------------------------|--------------------------|
--------------------------|--------------------------|
--------------------------|--------------------------|
--------------------------|--------------------------|
 
--------------------------|------------------------------|
--5--0--7--0--8--0--5--0--|--12--13--0--10--12--5--4--7--|
--------------------------|------------------------------|
--------------------------|------------------------------|
--------------------------|------------------------------|
--------------------------|------------------------------|

  
--------------------------|--------------------------|
--5--0--7--0--8--0--5--0--|--3--5--3--0--3-----------|
--------------------------|-----------------2--4-----|
--------------------------|-----------------------4--|
--------------------------|--------------------------|
--------------------------|--------------------------|

 
--------------------------------|---------------------------|
--------------------------------|---------------------------|
--9------11------12------9------|--8-----9-----11-----8-----|
-----10------10------10-----10--|-----9-----9------9-----9--|
--------------------------------|---------------------------|
--------------------------------|---------------------------|

  
----------------------------------|----------------------------------|
----------------------------------|----------------------------------|
--11------13------14------11------|--13--14--13--11--10--11--10------|
------11------11------11------11--|------------------------------11--|
----------------------------------|----------------------------------|
----------------------------------|----------------------------------|

  
----------------------------------|----------------------------------|
----------------------------------|--14--15------12--14--------------|
--11------13------14------11------|--------------------------10--13--|
------11------11------11------11--|----------11----------11----------|
----------------------------------|----------------------------------|
----------------------------------|----------------------------------|

   
----------------------------------|---------9--12--17--12---------|
----------------------------------|-----10-----------------14\----|
--11------13------14------11------|--9----------------------------|
------11------11------11------11--|-------------------------------|
----------------------------------|-------------------------------|
----------------------------------|-------------------------------|

  
-------------------10--14--16--|--13------------------------------|
-----7--10--7--10--------------|------14--------------------------|
--7----------------------------|----------13--10------------------|
-------------------------------|------------------11--------------|
-------------------------------|----------------------11------11--|
-------------------------------|--------------------------13------|
Tap to rate this tab
# A B C D E F G H I J K L M N O P Q R S T U V W X Y Z