Song name
# A B C D E F G H I J K L M N O P Q R S T U V W X Y Z

Gamma Ray - Lust For Life tab

Lust For Life                                   


                                                                       Gamma Ray
Guitare 1



     E  E  E  E  E  E  E  E     E  E  E  E  E  E  Q     
E||--------------------------|-------------------------|
B||--5--5--5--0--0--7--0--0--|--8--0--7--0--5--0--8----|
G||--------------------------|-------------------------|
D||--------------------------|-------------------------|
A||--------------------------|-------------------------|
E||--------------------------|-------------------------|


  E  E  E  E  E  E  E  E     E  E  E  E  E  E  Q       E  E  E  E  E  E  E  E   
--------------------------|-------------------------|--------------------------|
--5--5--5--0--0--7--0--0--|--8--0--7--0--5--0--8----|--3--3--3--------5--------|
--------------------------|-------------------------|-----------2--2-----2--2--|
--------------------------|-------------------------|--------------------------|
--------------------------|-------------------------|--------------------------|
--------------------------|-------------------------|--------------------------|


  E  E  E  E  H           E  E  E  E  E  E  E  E     E  E  E  E  E  E  Q     
--2--------------------|--------------------------|-------------------------|
--------5-----3--------|--5--5--5--0--0--7--0--0--|--8--0--7--0--5--0--8----|
-----2-----2-----------|--------------------------|-------------------------|
-----------------------|--------------------------|-------------------------|
-----------------------|--------------------------|-------------------------|
-----------------------|--------------------------|-------------------------|


  E  E  E  E  E  E  E  E     E  E  E  E  E  E  Q       E  E  E  E  E  E  E  E   
--------------------------|-------------------------|--------------------------|
--5--5--5--0--0--7--0--0--|--8--0--7--0--5--0--8----|--5--5--5--0--0--7--0--0--|
--------------------------|-------------------------|--------------------------|
--------------------------|-------------------------|--------------------------|
--------------------------|-------------------------|--------------------------|
--------------------------|-------------------------|--------------------------|


  E  E  E  E  E  E  Q       E  E  E  E  E  E  E  E     E  E  E  E  H         
-------------------------|--------------------------|--2--------------------|
--8--0--7--0--5--0--8----|--3--3--3--------5--------|--------5-----3--------|
-------------------------|-----------2--2-----2--2--|-----2-----2-----------|
-------------------------|--------------------------|-----------------------|
-------------------------|--------------------------|-----------------------|
-------------------------|--------------------------|-----------------------|


  W                    S   S   S   S   S   S  S  S  S  S  S  S  S  S  S  S  
-------------------|-------------------------------------------------------|
--5----------------|-------------------------------------------------------|
-------------------|-------------------------------------------------------|
-------------------|-------------------------------------------------------|
-------------------|-------------------------------------------------------|
-------------------|--15S-14S-13S-12S-11S-10S-9S-8S-7S-6S-5S-4S-3S-2S-1S-0-|


    E  E  E  E  E  E  E  E     E  E  E  E  E  E  Q     
|---0--0--7--0--0--5--0--0--|--8--0--0--5--0--0--7----|
|---------------------------|-------------------------|
|*--------------------------|-------------------------|
|*--------------------------|-------------------------|
|---------------------------|-------------------------|
|---------------------------|-------------------------|


  E  E  E  E  E  E  E  E     E  E  E  E  E  E  Q         W                 
--0--0--7--0--0--5--0--0--|--8--0--0--5--0--0--7-----||-------------------|
--------------------------|--------------------------||-------------------|
--------------------------|-------------------------*||-------------------|
--------------------------|-------------------------*||--9----------------|
--------------------------|--------------------------||--7----------------|
--------------------------|--------------------------||--0----------------|


  H.           E  E     W                   H.           E  E   
---------------------|-------------------|---------------------|
---------------------|-------------------|---------------------|
---------------------|-------------------|---------------------|
--L------------9--9--|--9----------------|--L------------9--9--|
--L------------7--7--|--7----------------|--L------------7--7--|
--L------------0--0--|--0----------------|--L------------0--0--|


   E   E   E   E   E   E   E   E      Q     Q     Q     Q     
----------------------------------|--------------------------|
----------------------------------|--------------------------|
----------------------------------|--------------------------|
----------------------------------|--------------------------|
----------------------------------|--12----11----12----13----|
--10--10--10--10--10--10--10--10--|--10-----9----10----11----|


  E  E  E  E  E  E  E  E     E  E  E  E  E  E  Q       E  E  E  E  E  E  E  E   
--0--0--7--0--0--5--0--0--|--8--0--0--5--0--0--7----|--0--0--7--0--0--5--0--0--|
--------------------------|-------------------------|--------------------------|
--------------------------|-------------------------|--------------------------|
--------------------------|-------------------------|--------------------------|
--------------------------|-------------------------|--------------------------|
--------------------------|-------------------------|--------------------------|


  E  E  E  E  E  E  Q       W                   H.           E  E   
--8--0--0--5--0--0--7----|-------------------|---------------------|
-------------------------|-------------------|---------------------|
-------------------------|-------------------|---------------------|
-------------------------|--9----------------|--L------------9--9--|
-------------------------|--7----------------|--L------------7--7--|
-------------------------|--0----------------|--L------------0--0--|


  W                   H.           E  E      E   E   E   E   E   E   E   E   
-------------------|---------------------|----------------------------------|
-------------------|---------------------|----------------------------------|
-------------------|---------------------|----------------------------------|
--9----------------|--L------------9--9--|----------------------------------|
--7----------------|--L------------7--7--|----------------------------------|
--0----------------|--L------------0--0--|--10--10--10--10--10--10--10--10--|


   Q     Q     Q     Q       E  E  E  E  E  E  E  E     E  E  E  E  E  E  Q     
--------------------------|--0--0--7--0--0--5--0--0--|--8--0--0--5--0--0--7----|
--------------------------|--------------------------|-------------------------|
--------------------------|--------------------------|-------------------------|
--------------------------|--------------------------|-------------------------|
--12----11----12----13----|--------------------------|-------------------------|
--10-----9----10----11----|--------------------------|-------------------------|


  E  E  E  E  E  E  E  E     E  E  E  E  E  E  Q       E  E  E  E  E  E  E  E   
--0--0--7--0--0--5--0--0--|--8--0--0--5--0--0--7----|--------------------------|
--------------------------|-------------------------|--5-----7-----8-----7-----|
--------------------------|-------------------------|-----5-----5-----5-----5--|
--------------------------|-------------------------|--------------------------|
--------------------------|-------------------------|--------------------------|
--------------------------|-------------------------|--------------------------|


  E  E  E  E  E  E  E  E     E  E  E  E  E  E  E  E   
--------------------------|--------------------------|
--5-----7-----8-----7-----|--5-----7-----8-----7-----|
-----5-----5-----5-----5--|-----5-----5-----5-----5--|
--------------------------|--------------------------|
--------------------------|--------------------------|
--------------------------|--------------------------|


  E  E  E  E  E  E  E  E     E  E  E  E  E  E  E  E   
--------------------------|--3-----5-----7-----5-----|
--5-----7-----8-----7-----|-----3-----3-----3-----3--|
-----5-----5-----5-----5--|--------------------------|
--------------------------|--------------------------|
--------------------------|--------------------------|
--------------------------|--------------------------|


  E  E  E  E  E  E  E  E     E  E  E  E  E  E  E  E   
--3-----5-----7-----5-----|--3-----5-----7-----5-----|
-----3-----3-----3-----3--|-----3-----3-----3-----3--|
--------------------------|--------------------------|
--------------------------|--------------------------|
--------------------------|--------------------------|
--------------------------|--------------------------|


  E  E  E  E  E  E  E  E      H.             E   E      H.             E   E   
--3-----5-----7-----3-----|-------------------------|-----------------17--17--|
-----3-----3-----3-----3--|--15~--------------------|-------------------------|
--------------------------|-----------------14--14--|--14~--------------------|
--------------------------|-------------------------|-------------------------|
--------------------------|-------------------------|-------------------------|
--------------------------|-------------------------|-------------------------|


   H.             E   E      H.            Q       E  E  E  E  E  E  E  E   
--17~--------------------|----------------------|--------------------------|
-----------------15--15--|--15~-----------------|-----------------------3--|
-------------------------|----------------------|--------------2--4--5-----|
-------------------------|----------------------|-----2--4--5--------------|
-------------------------|----------------------|--5-----------------------|
-------------------------|----------------------|--------------------------|


  E  E  E  E  E  E  E  E     W                   H.           E  E   
--------------------------|-------------------|---------------------|
--5--3--------------------|--4----------------|--L------------4--4--|
--------5--4--2-----------|--4----------------|--L------------4--4--|
-----------------5--4--2--|--4----------------|--L------------4--4--|
--------------------------|--2----------------|--L------------2--2--|
--------------------------|-------------------|---------------------|


  W                   E  E  E  E  E  E  E  E     W                  
-------------------|--------------------------|--------------------|
--4----------------|--------------------------|--8~----------------|
--4----------------|--------------------------|--------------------|
--4----------------|--------------------------|--------------------|
--2----------------|--2--3--2--0--2--0--------|--------------------|
-------------------|--------------------3--2--|--------------------|


  H.           E  E     W                    W                 
---------------------|--------------------|-------------------|
--L------------------|--------------------|-------------------|
---------------7--7--|--7~----------------|--L----------------|
---------------------|--------------------|-------------------|
---------------------|--------------------|-------------------|
---------------------|--------------------|-------------------|


  W                    H.           E  E     W                  
--------------------|---------------------|--------------------|
--------------------|---------------------|--------------------|
--7~----------------|--L------------7--7--|--7~----------------|
--------------------|---------------------|--------------------|
--------------------|---------------------|--------------------|
--------------------|---------------------|--------------------|


  H.           E  E     H.           E  E     H.           E  E   
---------------------|---------------------|---------------2--2--|
---------------------|---------------------|---------------3--3--|
--L------------------|---------------0--0--|--0------------2--2--|
---------------2--2--|--2------------0--0--|--0------------0--0--|
---------------0--0--|--0------------x--x--|--x------------------|
---------------------|---------------3--3--|--3------------------|


  H.           E  E     H.           E  E     H.           E  E   
--2------------------|---------------------|---------------------|
--3------------------|---------------------|---------------------|
--2------------------|---------------------|---------------0--0--|
--0------------2--2--|--2------------2--2--|--2------------0--0--|
---------------0--0--|--0------------0--0--|--0------------x--x--|
---------------------|---------------------|---------------3--3--|


  H.           E  E     H.           E  E     H        E  E  Q     
---------------2--2--|--2------------------|----------------------|
---------------3--3--|--3------------------|----------------------|
--0------------2--2--|--2------------------|----------------------|
--0------------0--0--|--0------------2--2--|--2-------------------|
--x------------------|---------------0--0--|--0-------------------|
--3------------------|---------------------|-----------5--3--0----|


                                                 PH     
  E  E  E  E  E  E  E  E     E  E  E  E  E  E    Q      
--------------------------|----------------------------|
--x--x--5--5--x--7--x--x--|--8--8--7--7--5--5--<>8~----|
--------------------------|----------------------------|
--------------------------|----------------------------|
--------------------------|----------------------------|
--------------------------|----------------------------|


                                                 PH     
  E  E  E  E  E  E  E  E     E  E  E  E  E  E    Q      
--------------------------|----------------------------|
--x--x--5--5--x--7--x--x--|--8--8--7--7--5--5--<>8~----|
--------------------------|----------------------------|
--------------------------|----------------------------|
--------------------------|----------------------------|
--------------------------|----------------------------|


  E  E  E  E  E  E  E  E      E   E  E  E  E  E  E  E   
--------------------------|----------------------------|
--------------------------|----------------------------|
--x--x--7--7--x--9--x--x--|--11--11--9--9--7--7--7-----|
--------------------------|----------------------------|
--------------------------|----------------------------|
--------------------------|----------------------------|


  E   E  E  E   E  E  E  E     E  E  E  E  E  E  Q       W                 
--7-------------------------|-------------------------|-------------------|
-----10--8--7--10--8--7-----|--8--7-------------------|-------------------|
-------------------------9--|--------9--8--9----------|-------------------|
----------------------------|-------------------------|--9----------------|
----------------------------|-------------------------|--7----------------|
----------------------------|-------------------------|--0----------------|


  H.           E  E     W                   H.           E  E   
---------------------|-------------------|---------------------|
---------------------|-------------------|---------------------|
---------------------|-------------------|---------------------|
--L------------9--9--|--9----------------|--L------------9--9--|
--L------------7--7--|--7----------------|--L------------7--7--|
--L------------0--0--|--0----------------|--L------------0--0--|


   E   E   E   E   E   E   E   E      Q     Q     Q     Q     
----------------------------------|--------------------------|
----------------------------------|--------------------------|
----------------------------------|--------------------------|
----------------------------------|--------------------------|
----------------------------------|--12----11----12----13----|
--10--10--10--10--10--10--10--10--|--10-----9----10----11----|


  E  E  E  E  E  E  E  E     E  E  E  E  E  E  Q       E  E  E  E  E  E  E  E   
--0--0--7--0--0--5--0--0--|--8--0--0--5--0--0--7----|--0--0--7--0--0--5--0--0--|
--------------------------|-------------------------|--------------------------|
--------------------------|-------------------------|--------------------------|
--------------------------|-------------------------|--------------------------|
--------------------------|-------------------------|--------------------------|
--------------------------|-------------------------|--------------------------|


  E  E  E  E  E  E  Q       W                   H.           E  E   
--8--0--0--5--0--0--7----|-------------------|---------------------|
-------------------------|-------------------|---------------------|
-------------------------|-------------------|---------------------|
-------------------------|--9----------------|--L------------9--9--|
-------------------------|--7----------------|--L------------7--7--|
-------------------------|--0----------------|--L------------0--0--|


  W                   H.           E  E      E   E   E   E   E   E   E   E   
-------------------|---------------------|----------------------------------|
-------------------|---------------------|----------------------------------|
-------------------|---------------------|----------------------------------|
--9----------------|--L------------9--9--|----------------------------------|
--7----------------|--L------------7--7--|----------------------------------|
--0----------------|--L------------0--0--|--10--10--10--10--10--10--10--10--|


   Q     Q     Q     Q       E  E  E  E  E  E  E  E     E  E  E  E  E  E  Q     
--------------------------|--0--0--7--0--0--5--0--0--|--8--0--0--5--0--0--7----|
--------------------------|--------------------------|-------------------------|
--------------------------|--------------------------|-------------------------|
--------------------------|--------------------------|-------------------------|
--12----11----12----13----|--------------------------|-------------------------|
--10-----9----10----11----|--------------------------|-------------------------|


  E  E  E  E  E  E  E  E     E  E  E  E  E  E  Q       E  E  E  E  E  E  E  E   
--0--0--7--0--0--5--0--0--|--8--0--0--5--0--0--7----|--------------------------|
--------------------------|-------------------------|--5-----7-----8-----7-----|
--------------------------|-------------------------|-----5-----5-----5-----5--|
--------------------------|-------------------------|--------------------------|
--------------------------|-------------------------|--------------------------|
--------------------------|-------------------------|--------------------------|


  E  E  E  E  E  E  E  E     E  E  E  E  E  E  E  E   
--------------------------|--------------------------|
--5-----7-----8-----7-----|--5-----7-----8-----7-----|
-----5-----5-----5-----5--|-----5-----5-----5-----5--|
--------------------------|--------------------------|
--------------------------|--------------------------|
--------------------------|--------------------------|


  E  E  E  E  E  E  E  E     E  E  E  E  E  E  E  E   
--------------------------|--3-----5-----7-----5-----|
--5-----7-----8-----7-----|-----3-----3-----3-----3--|
-----5-----5-----5-----5--|--------------------------|
--------------------------|--------------------------|
--------------------------|--------------------------|
--------------------------|--------------------------|


  E  E  E  E  E  E  E  E     E  E  E  E  E  E  E  E   
--3-----5-----7-----5-----|--3-----5-----7-----5-----|
-----3-----3-----3-----3--|-----3-----3-----3-----3--|
--------------------------|--------------------------|
--------------------------|--------------------------|
--------------------------|--------------------------|
--------------------------|--------------------------|


  E  E  E  E  E  E  E  E      H.             E   E      H.             E   E   
--3-----5-----7-----3-----|-------------------------|-----------------17--17--|
-----3-----3-----3-----3--|--15~--------------------|-------------------------|
--------------------------|-----------------14--14--|--14~--------------------|
--------------------------|-------------------------|-------------------------|
--------------------------|-------------------------|-------------------------|
--------------------------|-------------------------|-------------------------|


   H.             E   E      H.            Q       E  E  E  E  E  E  E  E   
--17~--------------------|----------------------|--------------------------|
-----------------15--15--|--15~-----------------|-----------------------3--|
-------------------------|----------------------|--------------2--4--5-----|
-------------------------|----------------------|-----2--4--5--------------|
-------------------------|----------------------|--5-----------------------|
-------------------------|----------------------|--------------------------|


  E  E  E  E  E  E  E  E     W                   H.           E  E   
--------------------------|-------------------|---------------------|
--5--3--------------------|--4----------------|--L------------4--4--|
--------5--4--2-----------|--4----------------|--L------------4--4--|
-----------------5--4--2--|--4----------------|--L------------4--4--|
--------------------------|--2----------------|--L------------2--2--|
--------------------------|-------------------|---------------------|


  W                   E  E  E  E  E  E  E  E     W                  
-------------------|--------------------------|--------------------|
--4----------------|--------------------------|--8~----------------|
--4----------------|--------------------------|--------------------|
--4----------------|--------------------------|--------------------|
--2----------------|--2--3--2--0--2--0--------|--------------------|
-------------------|--------------------3--2--|--------------------|


  H.           E  E     W                    W                 
---------------------|--------------------|-------------------|
--L------------------|--------------------|-------------------|
---------------7--7--|--7~----------------|--L----------------|
---------------------|--------------------|-------------------|
---------------------|--------------------|-------------------|
---------------------|--------------------|-------------------|


  W                    H.           E  E     W                  
--------------------|---------------------|--------------------|
--------------------|---------------------|--------------------|
--7~----------------|--L------------7--7--|--7~----------------|
--------------------|---------------------|--------------------|
--------------------|---------------------|--------------------|
--------------------|---------------------|--------------------|


  H.           E  E     H.           E  E     H.           E  E   
---------------------|---------------------|---------------2--2--|
---------------------|---------------------|---------------3--3--|
--L------------------|---------------0--0--|--0------------2--2--|
---------------2--2--|--2------------0--0--|--0------------0--0--|
---------------0--0--|--0------------x--x--|--x------------------|
---------------------|---------------3--3--|--3------------------|


  H.           E  E     H.           E  E     H.           E  E   
--2------------------|---------------------|---------------------|
--3------------------|---------------------|---------------------|
--2------------------|---------------------|---------------0--0--|
--0------------2--2--|--2------------2--2--|--2------------0--0--|
---------------0--0--|--0------------0--0--|--0------------x--x--|
---------------------|---------------------|---------------3--3--|


  H.           E  E     H.           E  E     H        E  E  Q     
---------------2--2--|--2------------------|----------------------|
---------------3--3--|--3------------------|----------------------|
--0------------2--2--|--2------------------|----------------------|
--0------------0--0--|--0------------2--2--|--2-------------------|
--x------------------|---------------0--0--|--0-------------------|
--3------------------|---------------------|-----------5--3--0----|


                                                 PH     
  E  E  E  E  E  E  E  E     E  E  E  E  E  E    Q      
--------------------------|----------------------------|
--x--x--5--5--x--7--x--x--|--8--8--7--7--5--5--<>8~----|
--------------------------|----------------------------|
--------------------------|----------------------------|
--------------------------|----------------------------|
--------------------------|----------------------------|


                                                 PH     
  E  E  E  E  E  E  E  E     E  E  E  E  E  E    Q      
--------------------------|----------------------------|
--x--x--5--5--x--7--x--x--|--8--8--7--7--5--5--<>8~----|
--------------------------|----------------------------|
--------------------------|----------------------------|
--------------------------|----------------------------|
--------------------------|----------------------------|


  E  E  E  E  E  E  E  E      E   E  E  E  E  E  E  E     H        H         
--------------------------|----------------------------|--------------------|
--------------------------|----------------------------|--------------------|
--x--x--7--7--x--9--x--x--|--11--11--9--9--7--7--7-----|--------------------|
--------------------------|----------------------------|-----------4--------|
--------------------------|----------------------------|--7-----------------|
--------------------------|----------------------------|--------------------|


  H        H            E  E  E  E   E  E   E  E     E  E   E  E  E  E  Q     
---------------------|----------------------------|--------------------------|
---------------------|----------------------------|--------------------------|
-----------4~--------|----------------------------|--------------------------|
--5------------------|----------------------------|--------------------------|
---------------------|----------------------------|--9--7---------------7----|
---------------------|--7--7--9--9--10--9--10--7--|--------10--9--7--5--5----|


  E  E  E  E   E  E   E  E     E  E   E  E  H         
----------------------------|------------------------|
----------------------------|------------------------|
----------------------------|------------------------|
----------------------------|------------------------|
----------------------------|--9--7---------7--------|
--7--7--9--9--10--9--10--7--|--------10--5--5--------|


  E  E  E  E   E  E   E  E     E  E   E  E  E  E  Q     
----------------------------|--------------------------|
----------------------------|--------------------------|
----------------------------|--------------------------|
----------------------------|--------------------------|
----------------------------|--9--7---------------7----|
--7--7--9--9--10--9--10--7--|--------10--9--7--5--5----|


  E  E  E  E   E  E   E  E     E  E   E  E  H             W                 
----------------------------|------------------------||--------------------|
----------------------------|------------------------||--------------------|
----------------------------|------------------------||*-------------------|
----------------------------|------------------------||*-------------------|
----------------------------|--9--7---------7--------||--------------------|
--7--7--9--9--10--9--10--7--|--------10--5--5--------||---0----------------|


  W                   W                   W                   
-------------------|-------------------|--------------------||
-------------------|-------------------|--------------------||
-------------------|-------------------|-------------------*||
-------------------|-------------------|-------------------*||
-------------------|-------------------|--------------------||
--L----------------|--L----------------|--L-----------------||


    \2                       PH                                          
    W                        W                    Q.      E    H         
----------------------|------------------------|------------------------|
----------------------|--/<>12~----------------|--L------15b~--L--------|
*--12-----------------|------------------------|------------------------|
*--12~----------------|------------------------|------------------------|
----------------------|------------------------|------------------------|
----------------------|------------------------|------------------------|


  W                   Q     H.                W                 
-------------------|-----------------------|-------------------|
--L----------------|-------17b~------------|--L----------------|
-------------------|-----------------------|-------------------|
-------------------|-----------------------|-------------------|
-------------------|-----------------------|-------------------|
-------------------|-----------------------|-------------------|


   W                    H.            Q           H.             Q     
---------------------|-----------------------||-----------------------|
---------------------|-----------------------||--22br------------L----|
--14b----------------|--L------------12\----*||-----------------------|
---------------------|---------------12\----*||-----------------------|
---------------------|-----------------------||-----------------------|
---------------------|-----------------------||-----------------------|


                            |------3-----|     |------3-----|      
   E   Q.      H            Q     Q      Q     Q      Q     Q      
--19--------------------|--19-----------19-----------19----19b----|
------22b------L--------|--------22b----------22b-----------------|
------------------------|-----------------------------------------|
------------------------|-----------------------------------------|
------------------------|-----------------------------------------|
------------------------|-----------------------------------------|


                       \2                                    
   W                   W                   W                 
---L----------------|--L----------------|-------------------|
--------------------|-------------------|-------------------|
--------------------|-------------------|-------------------|
--------------------|-------------------|-------------------|
--------------------|-------------------|-------------------|
--------------------|-------------------|-------------------|


  W                   H        H             Q.     E  E  E  E  E   
-------------------|--------------------||-------------------------|
-------------------|--------------------||-------------------------|
-------------------|--------------------||*------------------------|
-------------------|--9--------7--------||*------------------4-----|
-------------------|--7--------5--------||---7------5--7-----------|
-------------------|--------------------||-------------------------|


  Q.     E  E  E  E  E     Q.     E  E  E  E  E     W                  
------------------------|------------------------|--------------------|
------------------------|------------------------|--------------------|
------------------------|--4---------4-----7-----|--7b----------------|
--5------4--5-----7-----|---------7--------------|--------------------|
------------------------|------------------------|--------------------|
------------------------|------------------------|--------------------|


  W                    W                     W                   
--------------------|--------------------|----------------------|
--------------------|--------------------|----------------------|
--7~----------------|--------------------|--11b~----------------|
--------------------|--5~----------------|----------------------|
--------------------|--------------------|----------------------|
--------------------|--------------------|----------------------|


  W                     W                     W                  
--------------------||--------------------|---------------------|
--------------------||--------------------|---------------------|
--L----------------*||--7~----------------|--11b----------------|
-------------------*||--------------------|---------------------|
--------------------||--------------------|---------------------|
--------------------||--------------------|---------------------|


                               \1                                            
  W                   H        Q    Q        E   E   E   E   E   E   E   E   
-------------------|---------------------|----------------------------------|
-------------------|---------------------|----------------------------------|
--L----------------|--L--------L---------|--14--11------11--16--11------11--|
-------------------|---------------------|----------12--------------12------|
-------------------|---------------------|----------------------------------|
-------------------|---------------------|----------------------------------|


   E   E   E   E   E   E   E   E      E   E   E   E   E   E   E   E   
----------------------------------|----------------------------------|
----------------------------------|----------------------------------|
--14--11------11--16--11------11--|--14--11------11--16--11------11--|
----------12--------------12------|----------12--------------12------|
----------------------------------|----------------------------------|
----------------------------------|----------------------------------|


   E   E   E   E   E   E   E   E      E   E   E   E   E  E  Q     
----------------------------------|------------------------------|
----------------------------------|------------------------------|
--14--11------11--16--11------11--|--14--11------11--14----------|
----------12--------------12------|----------12------------------|
----------------------------------|------------------------------|
----------------------------------|------------------------------|


   E   E   E   E   E  E  Q        E   E   E   E   E   E   E   E   
------------------------------|----------------------------------|
------------------------------|----------------------------------|
--14--11------11--14----------|--14--11------14--11------14--11--|
----------12------------------|----------12----------12----------|
------------------------------|----------------------------------|
------------------------------|----------------------------------|


   E   E   E   E   E   E   E  E      Q      H        Q     
---------------------------------|------------------------|
---------------------------------|------------------------|
------14--11------14--11---------|--14br----L--------L----|
--12----------12----------12-----|------------------------|
---------------------------------|------------------------|
---------------------------------|------------------------|


   W                      W                   H        Q    Q     
-----------------------|-------------------|---------------------|
-----------------------|-------------------|---------------------|
--14br~----------------|--L----------------|--L--------L---------|
-----------------------|-------------------|---------------------|
-----------------------|-------------------|---------------------|
-----------------------|-------------------|---------------------|


                \1                                                      
    Q      Q    Q    Q       H.            Q       H.            E  E   
--------------------------|---------------------|----------------------|
--------------------------|---------------------|----------------------|
---------------------7----|--6~-----------------|----------------------|
--5g7br----L----L---------|----------------7----|--5~------------------|
--------------------------|---------------------|----------------6-----|
--------------------------|---------------------|----------------------|


                                        |--3--|  |---3--|   
  E   Q.      H            E  E   E  E  E  E  E  E   E  E   
------------------------|----------------------------------|
------------------------|----------------------------------|
------------------------|----------------------------------|
--5h--7~------7~--------|--4--5p--4-----4--5--7--5p--4-----|
------------------------|------------7------------------7--|
------------------------|----------------------------------|


  |--3--|  |--3--|  |---3--|                                  
  E  E  E  E  E  E  E   E  E  E  E     E  E    Q    H         
------------------------------------|------------------------|
------------------------------------|------------------------|
------------------------------------|------------------------|
--4--5--7--5--7--5--5p--4-----4-----|------------------------|
---------------------------7-----7--|--5--7br--L----L--------|
------------------------------------|------------------------|


  \1                                                                    
  H.           Q       E   E   H.               H         Q      Q      
--------------------|-----------------------|--------------------------|
--------------------|-----------------------|--------------------------|
--------------------|-----14b--L------------|---L--------14b----14b----|
--------------------|-----------------------|--------------------------|
--0-----------------|-----------------------|--------------------------|
--------------------|-----------------------|--------------------------|


   H         Q    E    E       E   Q.      H            H.             Q     
---------------------------|------------------------|-----------------------|
---------------------------|------------------------|-----------------------|
--14b--------L----Lh--12h--|--14--12~------L--------|--14br------------L----|
---------------------------|------------------------|-----------------------|
---------------------------|------------------------|-----------------------|
---------------------------|------------------------|-----------------------|


   H         Q    E   E      H.             Q       H          H         
-------------------------|-----------------------|----------------------|
-------------------------|--15br------------L----|--Lb~--------L--------|
--12~--------L----L--12--|-----------------------|----------------------|
-------------------------|-----------------------|----------------------|
-------------------------|-----------------------|----------------------|
-------------------------|-----------------------|----------------------|


    Q.     E  E  E  E  E     Q.     E  E  E  E  E     Q.     E  E  E   E  E   
|-------------------------|------------------------|-------------------------|
|-------------------------|------------------------|-------------------------|
|*------------------------|--5------4--5-----7-----|--9------7--9-----12-----|
|*--7------5--7-----8-----|------------------------|-------------------------|
|-------------------------|------------------------|-------------------------|
|-------------------------|------------------------|-------------------------|


   W                     E  E   E   E  E   E   E  E   
---------------------|-------------------------------|
---------------------|-------------------------------|
--12b----------------|--12--9------12--9------12--9--|
---------------------|---------10---------10---------|
---------------------|-------------------------------|
---------------------|-------------------------------|


   E   E  E   E   E  E   E  E        W                      W                  
--------------------------------||---------------------||---------------------|
--------------------------------||---------------------||---------------------|
------12--9------14-----12-----*||--12b----------------||*--9~----------------|
--10---------10----------------*||---------------------||*--------------------|
--------------------------------||---------------------||---------------------|
--------------------------------||---------------------||---------------------|


  H        Q    Q          W                    Q     H          Q       
---------------------|-----------------------|-------------------------||
---------------------|-----------------------|-------------------------||
--L--------7----9----|--9g10~----------------|--L----10br--------L----*||
---------------------|-----------------------|------------------------*||
---------------------|-----------------------|-------------------------||
---------------------|-----------------------|-------------------------||


   H         Q     Q           W                    H         Q     Q     
------------------------|------------------------|-----------------------|
------------------------|------------------------|-----------------------|
--10~--------9----10----|--10g12~----------------|--L--------10----12----|
------------------------|------------------------|-----------------------|
------------------------|------------------------|-----------------------|
------------------------|------------------------|-----------------------|


      W                    H         Q     Q        E    E    H.             
------------------------|-----------------------|---------------------------|
------------------------|-----------------------|---------------------------|
--12g14~----------------|--L--------15----14----|--12h--14p--12~------------|
------------------------|-----------------------|---------------------------|
------------------------|-----------------------|---------------------------|
------------------------|-----------------------|---------------------------|


  H         Q     Q        H.             Q       H         Q     Q     
-----------------------|-----------------------|-----------------------|
-----------------------|-----------------------|-----------------------|
--L--------10----12----|--14br------------L----|--L--------13----14----|
-----------------------|-----------------------|-----------------------|
-----------------------|-----------------------|-----------------------|
-----------------------|-----------------------|-----------------------|


   W                    H         Q     Q        W                  
---------------------|-----------------------|---------------------|
---------------------|-----------------------|---------------------|
--16~----------------|--L--------14----16----|--17~----------------|
---------------------|-----------------------|---------------------|
---------------------|-----------------------|---------------------|
---------------------|-----------------------|---------------------|


  H.           Q        E  E   E   E  E   E  E   E   
--------------------|-------------------------------|
--------------------|-------------------------------|
--L-----------------|-------------------------------|
--------------------|-----------------9--10--9--10--|
--------------------|--10--9--10--12----------------|
--------------------|-------------------------------|


   E   E   E   E   H            W                   H.           Q     
-----------------------------|-------------------|--------------------|
-----------------------------|-------------------|--------------------|
------------------12~--------|--L----------------|--L-----------------|
--12--12--11--12-------------|-------------------|--------------------|
-----------------------------|-------------------|--------------------|
-----------------------------|-------------------|--------------------|


  E  E  E  E  E  E  E  E     E  E  E  E  E  E  E  E   
--------------------------|--------------------------|
--------------------------|--------------------------|
--------------------------|--------------------------|
--------------------------|--------------------------|
--2--2--2--2--2--2--2--2--|--2--2--2--2--0--0--1--1--|
--------------------------|--------------------------|


  E  E  E  E  E  E  E  E     E  E  E  E  E  E  E  E   
--------------------------|--------------------------|
--------------------------|--------------------------|
--------------------------|--------------------------|
--------------------------|--------------------------|
--2--2--2--2--2--2--2--2--|--2--2--2--2--0--0--1--1--|
--------------------------|--------------------------|


  E  E  E  E  E  E  E  E     E  E  E  E  E  E  E  E   
--------------------------|--------------------------|
--------------------------|--------------------------|
--------------------------|--------------------------|
--------------------------|--------------------------|
--2--2--2--2--2--2--2--2--|--2--2--2--2--0--0--1--1--|
--------------------------|--------------------------|


  E  E  E  E  E  E  E  E     E  E  E  E  E  E  E  E   
--------------------------|--------------------------|
--------------------------|--------------------------|
--------------------------|--------------------------|
--------------------------|--------------------------|
--2--2--2--2--2--2--2--2--|--2--2--2--2--0--0--1--1--|
--------------------------|--------------------------|


  E  E  E  E  E  E  E  E     E  E  E  E  E  E  E  E   
--------------------------|--------------------------|
--------------------------|--------------------------|
--------------------------|--------------------------|
--------------------------|--------------------------|
--2--2--2--2--2--2--2--2--|--2--2--2--2--0--0--1--1--|
--------------------------|--------------------------|


  E  E  E  E  E  E  E  E     E  E  E  E  E  E  E  E   
--------------------------|--------------------------|
--------------------------|--------------------------|
--------------------------|--------------------------|
--------------------------|--------------------------|
--2--2--2--2--2--2--2--2--|--2--2--2--2--0--0--1--1--|
--------------------------|--------------------------|


  E  E  E  E  E  E  E  E     E  E  E  E  E  E  E  E   
--------------------------|--------------------------|
--------------------------|--------------------------|
--------------------------|--------------------------|
--------------------------|--------------------------|
--2--2--2--2--2--2--2--2--|--2--2--2--2--0--0--1--1--|
--------------------------|--------------------------|


  E  E  E  E  E  E  E  E     E  E  E  E  E  E  Q     
--------------------------|-------------------------|
--------------------------|-------------------------|
--------------------------|-------------------------|
--------------------------|-------------------------|
--2--2--2--2--2--2--2--2--|--2--2--2--2--2--2--2----|
--------------------------|-------------------------|


   E   E   E   E   E   E   E   E      E   E   E   E   H         
----------------------------------|--------------14--15--------|
------------------12------12--13--|--15--14--15----------------|
--12--11--12--14------14----------|----------------------------|
----------------------------------|----------------------------|
----------------------------------|----------------------------|
----------------------------------|----------------------------|


   E   E   E   E   E   E   E   E      E   E   E   E   H         
----------------------------------|--------------16--17--------|
------------------14------14--15--|--17--16--17----------------|
--14--13--14--16------16----------|----------------------------|
----------------------------------|----------------------------|
----------------------------------|----------------------------|
----------------------------------|----------------------------|


   E   E   E   E   E   E   E   E      E   E   E   E   H         
----------------------------------|--------------19--20--------|
------------------17------17--19--|--20--19--20----------------|
--17--16--17--19------19----------|----------------------------|
----------------------------------|----------------------------|
----------------------------------|----------------------------|
----------------------------------|----------------------------|


   E   E   E   E   E   E   E   E      E   E   E   E   H         
----------------------------------|--------------21--22--------|
------------------19------19--20--|--22--21--22----------------|
--19--18--19--21------21----------|----------------------------|
----------------------------------|----------------------------|
----------------------------------|----------------------------|
----------------------------------|----------------------------|


   Q     Q     Q     Q        Q     Q     Q     Q     
--15----14----12----------|--14----12----------------|
--------------------15----|--------------15----13----|
--------------------------|--------------------------|
--------------------------|--------------------------|
--------------------------|--------------------------|
--------------------------|--------------------------|


   Q     Q     Q     Q        E   E   E   E   E   E   E   E   
--12----------------------|--15--15--14--14--12--12--14--14--|
--------15----13----12----|----------------------------------|
--------------------------|----------------------------------|
--------------------------|----------------------------------|
--------------------------|----------------------------------|
--------------------------|----------------------------------|


   W                    H.            E   E      W                  
---------------------|-----------------------|---------------------|
--15~----------------|--L------------15--15--|--15~----------------|
---------------------|-----------------------|---------------------|
---------------------|-----------------------|---------------------|
---------------------|-----------------------|---------------------|
---------------------|-----------------------|---------------------|


  W                     H.           E  E     H.           E  E   
-------------------||----------------------|---------------------|
--L----------------||----------------------|---------------------|
-------------------||*---------------------|---------------------|
-------------------||*--9------------9--9--|--7------------5--5--|
-------------------||---7------------7--7--|--5------------3--3--|
-------------------||----------------------|---------------------|


  W                   H        Q    Q       H.           E  E   
-------------------|---------------------|---------------------|
-------------------|---------------------|---------------------|
-------------------|---------------------|---------------------|
--5----------------|--L--------5----7----|--9------------9--9--|
--3----------------|--L--------3----5----|--7------------7--7--|
-------------------|---------------------|---------------------|


  H.           E  E     W                   H        Q    Q     
---------------------|-------------------|---------------------|
---------------------|-------------------|---------------------|
---------------------|-------------------|---------------------|
--7------------5--5--|--5----------------|--L--------5----7----|
--5------------3--3--|--3----------------|--L--------3----5----|
---------------------|-------------------|---------------------|


  E  E  Q    E  E  Q       E  E  Q    E  E  Q       E  E  Q    E  E  Q     
------------------------|------------------------|------------------------|
------------------------|------------------------|------------------------|
------------------------|------------------------|------------------------|
--------9----------9----|--------9----------9----|--------9----------9----|
--------7----------7----|--------7----------7----|--------7----------7----|
--0--0-------0--0-------|--0--0-------0--0-------|--0--0-------0--0-------|


  E  E  Q    E  E  Q       W                   H.           E  E   
------------------------|-------------------|---------------------|
------------------------|-------------------|---------------------|
------------------------|-------------------|---------------------|
--------9----------9----|--7----------------|--L------------7--7--|
--------7----------7----|--5----------------|--L------------5--5--|
--0--0-------0--0-------|-------------------|---------------------|


  W                   W                     W                 
-------------------|--------------------||-------------------|
-------------------|--------------------||-------------------|
-------------------|-------------------*||-------------------|
--7----------------|--L----------------*||--L----------------|
--5----------------|--L-----------------||--L----------------|
-------------------|--------------------||-------------------|


  W                    H.           E  E     W                  
--------------------|---------------------|--------------------|
--8~----------------|--L------------------|--------------------|
--------------------|---------------7--7--|--7~----------------|
--------------------|---------------------|--------------------|
--------------------|---------------------|--------------------|
--------------------|---------------------|--------------------|


  W                   W                    H.           E  E   
-------------------|--------------------|---------------------|
-------------------|--------------------|---------------------|
--L----------------|--7~----------------|--L------------7--7--|
-------------------|--------------------|---------------------|
-------------------|--------------------|---------------------|
-------------------|--------------------|---------------------|


  W                    H.           E  E     H.           E  E   
--------------------|---------------------|---------------------|
--------------------|---------------------|---------------------|
--7~----------------|--L------------------|---------------0--0--|
--------------------|---------------2--2--|--2------------0--0--|
--------------------|---------------0--0--|--0------------x--x--|
--------------------|---------------------|---------------3--3--|


  H.           E  E     H.           E  E     H.           E  E   
---------------2--2--|--2------------------|---------------------|
---------------3--3--|--3------------------|---------------------|
--0------------2--2--|--2------------------|---------------------|
--0------------0--0--|--0------------2--2--|--2------------2--2--|
--x------------------|---------------0--0--|--0------------0--0--|
--3------------------|---------------------|---------------------|


  H.           E  E     H.           E  E     H.           E  E   
---------------------|---------------2--2--|--2------------------|
---------------------|---------------3--3--|--3------------------|
---------------0--0--|--0------------2--2--|--2------------------|
--2------------0--0--|--0------------0--0--|--0------------2--2--|
--0------------x--x--|--x------------------|---------------0--0--|
---------------3--3--|--3------------------|---------------------|


  H        E  E  Q       W                   W                 
----------------------|-------------------|-------------------|
----------------------|-------------------|-------------------|
----------------------|-------------------|-------------------|
--2-------------------|--2----------------|--2----------------|
--0-------------------|--0----------------|--0----------------|
-----------5--3--0----|-------------------|-------------------|


                                               TP             
  W                   W                   Q    H        Q     
-------------------|--2----------------|--2----2--------L----|
-------------------|--3----------------|--3----3--------L----|
--0----------------|--2----------------|--2----2--------L----|
--0----------------|--0----------------|--0----0--------L----|
--x----------------|-------------------|---------------------|
--3----------------|-------------------|---------------------|


                                                   PH       
  E  E  E  E  E  E  E  E      E   E  E  E  E  E    E    E   
--------------------------|--------------------------------|
--------------------------|--------------------------------|
--------------------------|--------------------------------|
--------------------------|----------------------<>9br--L--|
--------7--7-----9--------|--10--10--9--9--7--7------------|
--0--0--------0-----0--0--|--------------------------------|


  E  E  Q    E  Q.        H         H          
-----------------------|---------------------||
-----------------------|---------------------||
-----------------------|---------------------||
--------9----L--7------|--9\-----------------||
--------7----L--5------|--7\-----------------||
--0--0-----------------|---------------------||




Duration Legend
---------------
W - whole
H - half
Q - quarter
E - 8th
S - 16th
T - 32nd
X - 64th
. - note dotted
|-n-|  - n-tuplets


Tablature Legend
----------------
L - tied note
x - dead note
g - grace note
(n) - ghost note
> - accentuded note
NH - natural harmonic
AH - artificial harmonic
TH - tapped harmonic
SH - semi harmonic
PH - pitch harmonic
h - hammer on
p - pull off
b - bend
br - bendRelease
pb - preBend
pbr - preBendRelease
brb - bendReleaseBend
\n/ - tremolo bar dip
\n - tremolo bar dive
-/n - tremolo bar Release up
/n\ - tremolo bar inverted dip
/n - tremolo bar return
-\n - tremolo bar Release down
S - shift slide
s - legato slide
/ -  slide into from below or out of upwards
\ -  slide into from above or out of downwards
~ - vibrato
W - wide vibrato
tr - trill
TP - tremolo picking
T - tapping
S - slap
P - pop
< - fade in
^ - brush up
v - brush down
Tap to rate this tab
# A B C D E F G H I J K L M N O P Q R S T U V W X Y Z