Song name
# A B C D E F G H I J K L M N O P Q R S T U V W X Y Z

Gamma Ray - Land Of The Free drum

 Land Of The Free                                 


                                                                       Gamma Ray
Thomas



      |---3---|   |---3---|   |---3---|   |---3---|   
      E   E   E   E   E   E   E   E   E   E   E   E   
C||--------------------------------------------------|
C||--45--45--45--45--45--45--38--45--45--45--45--45--|
C||--35----------35----------35----------35----------|
C||--------------------------------------------------|
C||--------------------------------------------------|
C||--------------------------------------------------|


   |---3---|   |---3---|               
   E   E   E   E   E   E   Q     Q     
--------------------------42----42----|
--38--45--45--45--45--45--------------|
--35----------35----------35----35----|
--------------------------------------|
--------------------------------------|
--------------------------------------|


   |---3---|   |---3---|   |---3---|   |---3---|   
   E   E   E   E   E   E   E   E   E   E   E   E   
--------------------------------------------------|
--45--45--45--45--45--45--38--45--45--45--45--45--|
--35----------35----------35----------35----------|
--------------------------------------------------|
--------------------------------------------------|
--------------------------------------------------|


   |---3---|   |---3---|               
   E   E   E   E   E   E   Q     Q     
--------------------------42----42----|
--38--45--45--45--45--45--------------|
--35----------35----------35----35----|
--------------------------------------|
--------------------------------------|
--------------------------------------|


   |---3---|   |---3---|   |---3---|   |---3---|   
   E   E   E   E   E   E   E   E   E   E   E   E   
--------------------------------------------------|
--45--45--45--45--45--45--38--45--45--45--45--45--|
--35----------35----------35----------35----------|
--------------------------------------------------|
--------------------------------------------------|
--------------------------------------------------|


   |---3---|   |---3---|               
   E   E   E   E   E   E   Q     Q     
--------------------------42----42----|
--38--45--45--45--45--45--------------|
--35----------35----------35----35----|
--------------------------------------|
--------------------------------------|
--------------------------------------|


   |---3---|   |---3---|   |---3---|   |---3---|   
   E   E   E   E   E   E   E   E   E   E   E   E   
--------------------------------------------------|
--45--45--45--45--45--45--38--45--45--45--45--45--|
--35----------35----------35----------35----------|
--------------------------------------------------|
--------------------------------------------------|
--------------------------------------------------|


   |---3---|   |---3---|                           
   E   E   E   E   E   E   H           Q     Q     
--------------------------46--------|--L----42----|
--45--45--45--43--43--43------------|-------38----|
--35----------35----------35--------|-------------|
------------------------------------|-------------|
------------------------------------|-------------|
------------------------------------|-------------|


     |---3---|   |---3---|   |---3---|   |---3---|   
     E   E   E   E   E   E   E   E   E   E   E   E   
|---42----------54----------54----------54----------|
|---------------38----------------------38----------|
|*--35--35--35--35--35--35--35--35--35--35--35--35--|
|*--------------------------------------------------|
|---------------------------------------------------|
|---------------------------------------------------|


   |---3---|   |---3---|   |---3---|   |---3---|   
   E   E   E   E   E   E   E   E   E   E   E   E   
--54----------54----------42----------42----------|
--------------38----------------------38----------|
--35--35--35--35--35--35--35--35--35--35--35--35--|
--------------------------------------------------|
--------------------------------------------------|
--------------------------------------------------|


   |---3---|   |---3---|   |---3---|   |---3---|   
   E   E   E   E   E   E   E   E   E   E   E   E   
--42----------54----------54----------54----------|
--------------38----------------------38----------|
--35--35--35--35--35--35--35--35--35--35--35--35--|
--------------------------------------------------|
--------------------------------------------------|
--------------------------------------------------|


   |---3---|   |---3---|   |---3---|   |---3---|     
   E   E   E   E   E   E   E   E   E   E   E   E     
--54----------54----------42----------42-----------||
--------------38----------------------38-----------||
--35--35--35--35--35--35--35--35--35--35--35--35--*||
--------------------------------------------------*||
---------------------------------------------------||
---------------------------------------------------||


   |---3---|   |---3---|   |---3---|   |---3---|   
   E   E   E   E   E   E   E   E   E   E   E   E   
--42----------------------42----------------------|
----------38--38--38--38----------38--38--38--38--|
--35--35--35--35--35--35--35--35--35--35--35--35--|
--------------------------------------------------|
--------------------------------------------------|
--------------------------------------------------|


   |---3---|   |---3---|   |-----3-----|     
   E   E   E   E   E   E   Q     Q     Q     
--42----------------------42----42----42----|
----------38--38--38--38--------------------|
--35--35--35--35--35--35--35----35----35----|
--------------------------------------------|
--------------------------------------------|
--------------------------------------------|


   |---3---|   |---3---|   |---3---|   |---3---|   
   E   E   E   E   E   E   E   E   E   E   E   E   
--42----------54----------54----------54----------|
--------------------------38----------------------|
--35--35--35--35--35--35--35--35--35--35--35--35--|
--------------------------------------------------|
--------------------------------------------------|
--------------------------------------------------|


   |---3---|   |---3---|   |---3---|   |---3---|   
   E   E   E   E   E   E   E   E   E   E   E   E   
--54----------54----------42----------42----------|
--------------------------38----------38----------|
--35--35--35--35--35--35--35--35--35--35--35--35--|
--------------------------------------------------|
--------------------------------------------------|
--------------------------------------------------|


   |---3---|   |---3---|   |---3---|   |---3---|   
   E   E   E   E   E   E   E   E   E   E   E   E   
--54----------54----------54----------54----------|
--------------------------38----------------------|
--35--35--35--35--35--35--35--35--35--35--35--35--|
--------------------------------------------------|
--------------------------------------------------|
--------------------------------------------------|


   |---3---|   |---3---|   |---3---|   |---3---|                       
   E   E   E   E   E   E   E   E   E   E   E   E     W                 
--54----------54----------42----------42----------|-------------------|
--------------------------38----------38----------|-------------------|
--35--35--35--35--35--35--35--35--35--35--35--35--|-------------------|
--------------------------------------------------|-------------------|
--------------------------------------------------|-------------------|
--------------------------------------------------|-------------------|


  W                   W                   W                   W                 
-------------------|-------------------|-------------------|-------------------|
-------------------|-------------------|-------------------|-------------------|
-------------------|-------------------|-------------------|-------------------|
-------------------|-------------------|-------------------|-------------------|
-------------------|-------------------|-------------------|-------------------|
-------------------|-------------------|-------------------|-------------------|


  W                   W                   W                 
-------------------|-------------------|-------------------|
-------------------|-------------------|-------------------|
-------------------|-------------------|-------------------|
-------------------|-------------------|-------------------|
-------------------|-------------------|-------------------|
-------------------|-------------------|-------------------|


   |---3---|   |---3---|   |---3---|   |---3---|   
   E   E   E   E   E   E   E   E   E   E   E   E   
--42----------42----------42----------42----------|
--------------38----------------------38----------|
--35--35--35--35--35--35--35--35--35--35--35--35--|
--------------------------------------------------|
--------------------------------------------------|
--------------------------------------------------|


   |---3---|   |---3---|   |---3---|   |---3---|                          
   E   E   E   E   E   E   E   E   E   E   E   E      Q    Q    H         
--42----------42----------42----------42----------|--46------------------|
--------------38----------38----------38----------|----------------------|
--35--35--35--35--35--35--35--35--35--35--35--35--|--35------------------|
--------------------------------------------------|----------------------|
--------------------------------------------------|----------------------|
--------------------------------------------------|----------------------|


  W                   W                   W                   W                 
-------------------|-------------------|-------------------|-------------------|
-------------------|-------------------|-------------------|-------------------|
-------------------|-------------------|-------------------|-------------------|
-------------------|-------------------|-------------------|-------------------|
-------------------|-------------------|-------------------|-------------------|
-------------------|-------------------|-------------------|-------------------|


  W                   W                   W                   W                 
-------------------|-------------------|-------------------|-------------------|
-------------------|-------------------|-------------------|-------------------|
-------------------|-------------------|-------------------|-------------------|
-------------------|-------------------|-------------------|-------------------|
-------------------|-------------------|-------------------|-------------------|
-------------------|-------------------|-------------------|-------------------|


                       |---3---|   |---3---|   |---3---|   |---3---|   
  W                    E   E   E   E   E   E   E   E   E   E   E   E   
-------------------|--42----------54----------54----------54----------|
-------------------|--------------38----------------------38----------|
-------------------|--35--35--35--35--35--35--35--35--35--35--35--35--|
-------------------|--------------------------------------------------|
-------------------|--------------------------------------------------|
-------------------|--------------------------------------------------|


   |---3---|   |---3---|   |---3---|   |---3---|   
   E   E   E   E   E   E   E   E   E   E   E   E   
--42----------42----------42----------42----------|
--------------38----------------------38----------|
--35--35--35--35--35--35--35--35--35--35--35--35--|
--------------------------------------------------|
--------------------------------------------------|
--------------------------------------------------|


   |---3---|   |---3---|   |---3---|   |---3---|   
   E   E   E   E   E   E   E   E   E   E   E   E   
--42----------------------------------------------|
----------------------38--38------47------47--38--|
--35--35--35--35--35--35--35--35--35--35--35--35--|
--------------------------------------------------|
--------------------------------------------------|
--------------------------------------------------|


   |---3---|   |---3---|   |---3---|   |---3---|   
   E   E   E   E   E   E   E   E   E   E   E   E   
--------------------------------------------------|
--38--38--38--38--38--38--38--38--38--38--38--38--|
--35--35--35--35--35--35--35--35--35--35--35--35--|
--------------------------------------------------|
--------------------------------------------------|
--------------------------------------------------|


   |---3---|   |---3---|   |---3---|   |---3---|   
   E   E   E   E   E   E   E   E   E   E   E   E   
--42----------54----------54----------54----------|
--------------38----------------------38----------|
--35--35--35--35--35--35--35--35--35--35--35--35--|
--------------------------------------------------|
--------------------------------------------------|
--------------------------------------------------|


   |---3---|   |---3---|   |---3---|   |---3---|   
   E   E   E   E   E   E   E   E   E   E   E   E   
--54----------54----------54----------54----------|
--------------38----------------------38----------|
--35--35--35--35--35--35--35--35--35--35--35--35--|
--------------------------------------------------|
--------------------------------------------------|
--------------------------------------------------|


   |---3---|   |---3---|   |---3---|   |---3---|   
   E   E   E   E   E   E   E   E   E   E   E   E   
--54----------54----------54----------54----------|
--------------38----------------------38----------|
--35--35--35--35--35--35--35--35--35--35--35--35--|
--------------------------------------------------|
--------------------------------------------------|
--------------------------------------------------|


   |---3---|   |---3---|   |---3---|   |---3---|   
   E   E   E   E   E   E   E   E   E   E   E   E   
--54----------54----------54----------54----------|
--------------38----------------------38----------|
--35--35--35--35--35--35--35--35--35--35--35--35--|
--------------------------------------------------|
--------------------------------------------------|
--------------------------------------------------|


   |---3---|   |---3---|   |---3---|   |---3---|   
   E   E   E   E   E   E   E   E   E   E   E   E   
--42----------54----------54----------54----------|
--------------38----------------------38----------|
--35--35--35--35--35--35--35--35--35--35--35--35--|
--------------------------------------------------|
--------------------------------------------------|
--------------------------------------------------|


   |---3---|   |---3---|   |---3---|   |---3---|   
   E   E   E   E   E   E   E   E   E   E   E   E   
--54----------54----------54----------54----------|
--------------38----------------------38----------|
--35--35--35--35--35--35--35--35--35--35--35--35--|
--------------------------------------------------|
--------------------------------------------------|
--------------------------------------------------|


   |---3---|   |---3---|   |---3---|   |---3---|   
   E   E   E   E   E   E   E   E   E   E   E   E   
--42----------54----------54----------54----------|
--------------38----------------------38----------|
--35--35--35--35--35--35--35--35--35--35--35--35--|
--------------------------------------------------|
--------------------------------------------------|
--------------------------------------------------|


   |---3---|   |---3---|   |---3---|   |---3---|   
   E   E   E   E   E   E   E   E   E   E   E   E   
--------------------------------------------------|
--45--45--45--38--38--38--47--38--38--47--47--38--|
--35--35--35--35--35--35--35--35--35--35--35--35--|
--------------------------------------------------|
--------------------------------------------------|
--------------------------------------------------|


     |---3---|   |---3---|   |---3---|   |---3---|   
     E   E   E   E   E   E   E   E   E   E   E   E   
|---42----------42----------42----------42----------|
|---------------38----------------------38----------|
|*--35--35--35--35--35--35--35--35--35--35--35--35--|
|*--------------------------------------------------|
|---------------------------------------------------|
|---------------------------------------------------|


   |---3---|   |---3---|   |---3---|   |---3---|   
   E   E   E   E   E   E   E   E   E   E   E   E   
--42----------42----------42----------42------42--|
--------------38----------------------38----------|
--35--35--35--35--35--35--35--35--35--35--35--35--|
--------------------------------------------------|
--------------------------------------------------|
--------------------------------------------------|


   |---3---|   |---3---|   |---3---|   |---3---|   
   E   E   E   E   E   E   E   E   E   E   E   E   
--42----------42----------42----------42----------|
--------------38----------------------38----------|
--35--35--35--35--35--35--35--35--35--35--35--35--|
--------------------------------------------------|
--------------------------------------------------|
--------------------------------------------------|


   |---3---|   |---3---|   |---3---|   |---3---|   
   E   E   E   E   E   E   E   E   E   E   E   E   
--42----------42----------42------42--42--42------|
--------------38----------------------38----------|
--35--35--35--35--35--35--35--35--35--35--35--35--|
--------------------------------------------------|
--------------------------------------------------|
--------------------------------------------------|


   |---3---|   |---3---|   |---3---|   |---3---|   
   E   E   E   E   E   E   E   E   E   E   E   E   
--42----------42----------42----------42----------|
--------------38----------------------38----------|
--35--35--35--35--35--35--35--35--35--35--35--35--|
--------------------------------------------------|
--------------------------------------------------|
--------------------------------------------------|


   |---3---|   |---3---|   |---3---|   |---3---|   
   E   E   E   E   E   E   E   E   E   E   E   E   
--42----------42----------42----------42----------|
--------------38----------------------38----------|
--35--35--35--35--35--35--35--35--35--35--35--35--|
--------------------------------------------------|
--------------------------------------------------|
--------------------------------------------------|


   |---3---|   |---3---|   |---3---|   |---3---|   
   E   E   E   E   E   E   E   E   E   E   E   E   
--42----------42----------42----------42----------|
--------------38----------------------38----------|
--35--35--35--35--35--35--35--35--35--35--35--35--|
--------------------------------------------------|
--------------------------------------------------|
--------------------------------------------------|


   |---3---|   |---3---|   |---3---|   |---3---|     
   E   E   E   E   E   E   E   E   E   E   E   E     
--42--42--42--42----------42--42--42---------------||
--------------38----------------------38--38--38---||
--35--35--35--35--35--35--35--35--35--35--35--35--*||
--------------------------------------------------*||
---------------------------------------------------||
---------------------------------------------------||


   |---3---|   |---3---|   |---3---|   |---3---|   
   E   E   E   E   E   E   E   E   E   E   E   E   
--42----------42----------42----------42----------|
--------------38----------------------38----------|
--35--35--35--35--35--35--35--35--35--35--35--35--|
--------------------------------------------------|
--------------------------------------------------|
--------------------------------------------------|


   |---3---|   |---3---|   |---3---|   |---3---|   
   E   E   E   E   E   E   E   E   E   E   E   E   
--42----------42----------42----------42----------|
--------------38----------------------38----------|
--35--35--35--35--35--35--35--35--35--35--35--35--|
--------------------------------------------------|
--------------------------------------------------|
--------------------------------------------------|


   |---3---|   |---3---|   |---3---|   |---3---|   
   E   E   E   E   E   E   E   E   E   E   E   E   
--42----------42----------42------42--42--42------|
--------------38----------------------38----------|
--35--35--35--35--35--35--35--35--35--35--35--35--|
--------------------------------------------------|
--------------------------------------------------|
--------------------------------------------------|


   |---3---|   |---3---|   |---3---|   |---3---|   
   E   E   E   E   E   E   E   E   E   E   E   E   
--42------42--42--42------------------------------|
--------------38----------47--47--38--38--38--38--|
--35--35--35--35--35--35--35--35--35--35--35--35--|
--------------------------------------------------|
--------------------------------------------------|
--------------------------------------------------|


     |---3---|   |---3---|   |---3---|   |---3---|   
     E   E   E   E   E   E   E   E   E   E   E   E   
|---42----------54----------54----------54----------|
|---------------38----------------------38----------|
|*--35--35--35--35--35--35--35--35--35--35--35--35--|
|*--------------------------------------------------|
|---------------------------------------------------|
|---------------------------------------------------|


   |---3---|   |---3---|   |---3---|   |---3---|   
   E   E   E   E   E   E   E   E   E   E   E   E   
--54----------54----------54----------54----------|
--------------38----------------------38----------|
--35--35--35--35--35--35--35--35--35--35--35--35--|
--------------------------------------------------|
--------------------------------------------------|
--------------------------------------------------|


   |---3---|   |---3---|   |---3---|   |---3---|   
   E   E   E   E   E   E   E   E   E   E   E   E   
--54----------54----------54----------54----------|
--------------38----------------------38----------|
--35--35--35--35--35--35--35--35--35--35--35--35--|
--------------------------------------------------|
--------------------------------------------------|
--------------------------------------------------|


   |---3---|   |---3---|   |---3---|   |---3---|     
   E   E   E   E   E   E   E   E   E   E   E   E     
--42----------54----------42----------54-----------||
--------------38----------------------38-----------||
--35--35--35--35--35--35--35--35--35--35--35--35--*||
--------------------------------------------------*||
---------------------------------------------------||
---------------------------------------------------||


   |---3---|   |---3---|   |---3---|   |---3---|   
   E   E   E   E   E   E   E   E   E   E   E   E   
--54----------54----------54----------54----------|
--------------38----------------------38----------|
--35--35--35--35--35--35--35--35--35--35--35--35--|
--------------------------------------------------|
--------------------------------------------------|
--------------------------------------------------|


   |---3---|   |---3---|   |---3---|   |---3---|   
   E   E   E   E   E   E   E   E   E   E   E   E   
--42----------54----------54----------54----------|
--------------38----------------------38----------|
--35--35--35--35--35--35--35--35--35--35--35--35--|
--------------------------------------------------|
--------------------------------------------------|
--------------------------------------------------|


   |---3---|   |---3---|   |---3---|   |---3---|   
   E   E   E   E   E   E   E   E   E   E   E   E   
--42----------------------42----------------------|
----------38--38--38--38----------38--38--38--38--|
--35--35--35--35--35--35--35--35--35--35--35--35--|
--------------------------------------------------|
--------------------------------------------------|
--------------------------------------------------|


   |---3---|   |---3---|               
   E   E   E   E   E   E   Q     Q     
--42----------------------42----42----|
----------38--38--38--38--------------|
--35--35--35--35--35--35--35----35----|
--------------------------------------|
--------------------------------------|
--------------------------------------|


   |--3--|   |---3---|   |--3--|   |---3---|   
   Q     E   E   E   E   Q     E   E   E   E   
--42--------54----------42--------42----------|
------------38--------------------38----------|
--35----35------35--35--35----35------35--35--|
----------------------------------------------|
----------------------------------------------|
----------------------------------------------|


   |--3--|   |---3---|   |--3--|   |---3---|   
   Q     E   E   E   E   Q     E   E   E   E   
--42--------54----------42--------42----------|
------------38--------------------38----------|
--35----35------35--35--35----35------35--35--|
----------------------------------------------|
----------------------------------------------|
----------------------------------------------|


   |--3--|   |---3---|   |--3--|   |---3---|   
   Q     E   E   E   E   Q     E   E   E   E   
--42--------54----------42--------42----------|
------------38--------------------38----------|
--35----35------35--35--35----35------35--35--|
----------------------------------------------|
----------------------------------------------|
----------------------------------------------|


   |--3--|   |---3---|   |--3--|   |---3---|   
   Q     E   E   E   E   Q     E   E   E   E   
--42--------54----------42--------42----------|
------------38--------------------38----------|
--35----35------35--35--35----35------35--35--|
----------------------------------------------|
----------------------------------------------|
----------------------------------------------|


   |--3--|   |---3---|   |--3--|   |---3---|   
   Q     E   E   E   E   Q     E   E   E   E   
--42--------54----------42--------42----------|
------------38--------------------38----------|
--35----35------35--35--35----35------35--35--|
----------------------------------------------|
----------------------------------------------|
----------------------------------------------|


   |--3--|   |---3---|   |--3--|   |---3---|   
   Q     E   E   E   E   Q     E   E   E   E   
--42--------54----------42--------42----------|
------------38--------------------38----------|
--35----35------35--35--35----35------35--35--|
----------------------------------------------|
----------------------------------------------|
----------------------------------------------|


   |--3--|   |---3---|   |--3--|   |--3--|   
   Q     E   E   E   E   Q     E   Q     E   
--42--------42----------42--------54--------|
------------38--------------------38----38--|
--35----35------35--35--35----35------------|
--------------------------------------------|
--------------------------------------------|
--------------------------------------------|


   |---3---|   |---3---|   |---3---|   |---3---|   
   E   E   E   E   E   E   E   E   E   E   E   E   
--------------------------------------------------|
--45--38--38--38--38--38--38--38--38--38--38--38--|
--------------------------------------------------|
--------------------------------------------------|
--------------------------------------------------|
--------------------------------------------------|


   |---3---|   |---3---|   |---3---|   |---3---|   
   E   E   E   E   E   E   E   E   E   E   E   E   
--42----------54----------54----------54----------|
--------------38----------------------38----------|
--35--35--35--35--35--35--35--35--35--35--35--35--|
--------------------------------------------------|
--------------------------------------------------|
--------------------------------------------------|


   |---3---|   |---3---|   |---3---|   |---3---|   
   E   E   E   E   E   E   E   E   E   E   E   E   
--54----------54----------54----------54----------|
--------------38----------------------38----------|
--35--35--35--35--35--35--35--35--35--35--35--35--|
--------------------------------------------------|
--------------------------------------------------|
--------------------------------------------------|


   |---3---|   |---3---|   |---3---|   |---3---|   
   E   E   E   E   E   E   E   E   E   E   E   E   
--54----------54----------54----------54----------|
--------------38----------------------38----------|
--35--35--35--35--35--35--35--35--35--35--35--35--|
--------------------------------------------------|
--------------------------------------------------|
--------------------------------------------------|


   |---3---|   |---3---|   |---3---|   |---3---|   
   E   E   E   E   E   E   E   E   E   E   E   E   
--54----------54----------54----------54----------|
--------------38----------------------38----------|
--35--35--35--35--35--35--35--35--35--35--35--35--|
--------------------------------------------------|
--------------------------------------------------|
--------------------------------------------------|


   |---3---|   |---3---|   |---3---|   |---3---|   
   E   E   E   E   E   E   E   E   E   E   E   E   
--42----------54----------54----------54----------|
--------------38----------------------38----------|
--35--35--35--35--35--35--35--35--35--35--35--35--|
--------------------------------------------------|
--------------------------------------------------|
--------------------------------------------------|


   |---3---|   |---3---|   |---3---|   |---3---|   
   E   E   E   E   E   E   E   E   E   E   E   E   
--54----------54----------54----------54----------|
--------------38----------------------38----------|
--35--35--35--35--35--35--35--35--35--35--35--35--|
--------------------------------------------------|
--------------------------------------------------|
--------------------------------------------------|


   |---3---|   |---3---|   |---3---|   |---3---|   
   E   E   E   E   E   E   E   E   E   E   E   E   
--42----------54----------42----------------------|
--------------38------------------38--38--38--38--|
--35--35--35--35--35--35--35--35--35--35--35--35--|
--------------------------------------------------|
--------------------------------------------------|
--------------------------------------------------|


   |---3---|   |---3---|   |---3---|   |---3---|   
   E   E   E   E   E   E   E   E   E   E   E   E   
--42----------------------------------------------|
------38--38--38--38--38--38--47--38--38--47--38--|
--35--35--35--35--35--35--35--35--35--35--35--35--|
--------------------------------------------------|
--------------------------------------------------|
--------------------------------------------------|


     |---3---|   |---3---|   |---3---|   |---3---|   
     E   E   E   E   E   E   E   E   E   E   E   E   
|---42----------42----------42----------42----------|
|---------------38----------------------38----------|
|*--35--35--35--35--35--35--35--35--35--35--35--35--|
|*--------------------------------------------------|
|---------------------------------------------------|
|---------------------------------------------------|


   |---3---|   |---3---|   |---3---|   |---3---|   
   E   E   E   E   E   E   E   E   E   E   E   E   
--42----------42----------42----------42------42--|
--------------38----------------------38----------|
--35--35--35--35--35--35--35--35--35--35--35--35--|
--------------------------------------------------|
--------------------------------------------------|
--------------------------------------------------|


   |---3---|   |---3---|   |---3---|   |---3---|   
   E   E   E   E   E   E   E   E   E   E   E   E   
--42----------42----------42----------42----------|
--------------38----------------------38----------|
--35--35--35--35--35--35--35--35--35--35--35--35--|
--------------------------------------------------|
--------------------------------------------------|
--------------------------------------------------|


   |---3---|   |---3---|   |---3---|   |---3---|   
   E   E   E   E   E   E   E   E   E   E   E   E   
--42----------42----------42------42--42--42------|
--------------38----------------------38----------|
--35--35--35--35--35--35--35--35--35--35--35--35--|
--------------------------------------------------|
--------------------------------------------------|
--------------------------------------------------|


   |---3---|   |---3---|   |---3---|   |---3---|   
   E   E   E   E   E   E   E   E   E   E   E   E   
--42----------42----------42----------42----------|
--------------38----------------------38----------|
--35--35--35--35--35--35--35--35--35--35--35--35--|
--------------------------------------------------|
--------------------------------------------------|
--------------------------------------------------|


   |---3---|   |---3---|   |---3---|   |---3---|   
   E   E   E   E   E   E   E   E   E   E   E   E   
--42----------42----------42----------42----------|
--------------38----------------------38----------|
--35--35--35--35--35--35--35--35--35--35--35--35--|
--------------------------------------------------|
--------------------------------------------------|
--------------------------------------------------|


   |---3---|   |---3---|   |---3---|   |---3---|   
   E   E   E   E   E   E   E   E   E   E   E   E   
--42----------42----------42----------42----------|
--------------38----------------------38----------|
--35--35--35--35--35--35--35--35--35--35--35--35--|
--------------------------------------------------|
--------------------------------------------------|
--------------------------------------------------|


   |---3---|   |---3---|   |---3---|   |---3---|     
   E   E   E   E   E   E   E   E   E   E   E   E     
--42--42--42--42----------42--42--42---------------||
--------------38----------------------38--38--38---||
--35--35--35--35--35--35--35--35--35--35--35--35--*||
--------------------------------------------------*||
---------------------------------------------------||
---------------------------------------------------||


   |---3---|   |---3---|   |---3---|   |---3---|   
   E   E   E   E   E   E   E   E   E   E   E   E   
--42----------42----------42----------42----------|
--------------38----------------------38----------|
--35--35--35--35--35--35--35--35--35--35--35--35--|
--------------------------------------------------|
--------------------------------------------------|
--------------------------------------------------|


   |---3---|   |---3---|   |---3---|   |---3---|   
   E   E   E   E   E   E   E   E   E   E   E   E   
--42----------42----------42----------42----------|
--------------38----------------------38----------|
--35--35--35--35--35--35--35--35--35--35--35--35--|
--------------------------------------------------|
--------------------------------------------------|
--------------------------------------------------|


   |---3---|   |---3---|   |---3---|   |---3---|   
   E   E   E   E   E   E   E   E   E   E   E   E   
--42----------42----------42------42--42--42------|
--------------38----------------------38----------|
--35--35--35--35--35--35--35--35--35--35--35--35--|
--------------------------------------------------|
--------------------------------------------------|
--------------------------------------------------|


   |---3---|   |---3---|   |---3---|   |---3---|   
   E   E   E   E   E   E   E   E   E   E   E   E   
--42------42--------------42----------------------|
--38----------38------38----------38--38--38--38--|
--35--35--35--35--35--35--35--35--35--35--35--35--|
--------------------------------------------------|
--------------------------------------------------|
--------------------------------------------------|


   |---3---|   |---3---|   |---3---|   |---3---|   
   E   E   E   E   E   E   E   E   E   E   E   E   
--42----------54----------54----------54----------|
--------------38----------------------38----------|
--35--35--35--35--35--35--35--35--35--35--35--35--|
--------------------------------------------------|
--------------------------------------------------|
--------------------------------------------------|


   |---3---|   |---3---|   |---3---|   |---3---|   
   E   E   E   E   E   E   E   E   E   E   E   E   
--54----------54----------54----------54----------|
--------------38----------------------38----------|
--35--35--35--35--35--35--35--35--35--35--35--35--|
--------------------------------------------------|
--------------------------------------------------|
--------------------------------------------------|


   |---3---|   |---3---|   |---3---|   |---3---|   
   E   E   E   E   E   E   E   E   E   E   E   E   
--54----------54----------54----------54----------|
--------------38----------------------38----------|
--35--35--35--35--35--35--35--35--35--35--35--35--|
--------------------------------------------------|
--------------------------------------------------|
--------------------------------------------------|


   |---3---|   |---3---|   |---3---|   |---3---|   
   E   E   E   E   E   E   E   E   E   E   E   E   
--54----------54----------42----------54----------|
--------------38----------------------38----------|
--35--35--35--35--35--35--35--35--35--35--35--35--|
--------------------------------------------------|
--------------------------------------------------|
--------------------------------------------------|


   |---3---|   |---3---|   |---3---|   |---3---|   
   E   E   E   E   E   E   E   E   E   E   E   E   
--42----------54----------54----------54----------|
--------------38----------------------38----------|
--35--35--35--35--35--35--35--35--35--35--35--35--|
--------------------------------------------------|
--------------------------------------------------|
--------------------------------------------------|


   |---3---|   |---3---|   |---3---|   |---3---|   
   E   E   E   E   E   E   E   E   E   E   E   E   
--54----------54----------54----------54----------|
--------------38----------------------38----------|
--35--35--35--35--35--35--35--35--35--35--35--35--|
--------------------------------------------------|
--------------------------------------------------|
--------------------------------------------------|


   |---3---|   |---3---|   |---3---|   |---3---|   
   E   E   E   E   E   E   E   E   E   E   E   E   
--54----------54----------54----------54----------|
--------------38----------------------38----------|
--35--35--35--35--35--35--35--35--35--35--35--35--|
--------------------------------------------------|
--------------------------------------------------|
--------------------------------------------------|


   |---3---|   |---3---|   |---3---|   |---3---|   
   E   E   E   E   E   E   E   E   E   E   E   E   
--54----------54----------42----------------------|
--------------38----------38------38--38--38--38--|
--35--35--35--35--35--35--35--35--35--35--35--35--|
--------------------------------------------------|
--------------------------------------------------|
--------------------------------------------------|


   |---3---|   |---3---|   |---3---|   |---3---|   
   E   E   E   E   E   E   E   E   E   E   E   E   
--42----------54----------54----------54----------|
--------------38----------------------38----------|
--35--35--35--35--35--35--35--35--35--35--35--35--|
--------------------------------------------------|
--------------------------------------------------|
--------------------------------------------------|


   |---3---|   |---3---|   |---3---|   |---3---|   
   E   E   E   E   E   E   E   E   E   E   E   E   
--54----------54----------54----------54----------|
--------------38----------------------38----------|
--35--35--35--35--35--35--35--35--35--35--35--35--|
--------------------------------------------------|
--------------------------------------------------|
--------------------------------------------------|


   |---3---|   |---3---|   |---3---|   |---3---|   
   E   E   E   E   E   E   E   E   E   E   E   E   
--54----------54----------54----------54----------|
--------------38----------------------38----------|
--35--35--35--35--35--35--35--35--35--35--35--35--|
--------------------------------------------------|
--------------------------------------------------|
--------------------------------------------------|


   |---3---|   |---3---|   |--3--|   |---3---|   
   E   E   E   E   E   E   Q     E   E   E   E   
--54----------54----------42----42--------------|
--------------38--------------------38--38--38--|
--35--35--35--35--35--35--35----35--------------|
------------------------------------------------|
------------------------------------------------|
------------------------------------------------|


   |---3---|   |---3---|   |---3---|   |---3---|   
   E   E   E   E   E   E   E   E   E   E   E   E   
--42----------54----------54----------54----------|
--------------38----------------------38----------|
--35--35--35--35--35--35--35--35--35--35--35--35--|
--------------------------------------------------|
--------------------------------------------------|
--------------------------------------------------|


   |---3---|   |---3---|   |---3---|   |---3---|   
   E   E   E   E   E   E   E   E   E   E   E   E   
--54----------54----------54----------54----------|
--------------38----------------------38----------|
--35--35--35--35--35--35--35--35--35--35--35--35--|
--------------------------------------------------|
--------------------------------------------------|
--------------------------------------------------|


   |---3---|   |---3---|   |---3---|   |---3---|   
   E   E   E   E   E   E   E   E   E   E   E   E   
--54----------54----------54----------54----------|
--------------38----------------------38----------|
--35--35--35--35--35--35--35--35--35--35--35--35--|
--------------------------------------------------|
--------------------------------------------------|
--------------------------------------------------|


   |---3---|   |---3---|   |---3---|   |---3---|   
   E   E   E   E   E   E   E   E   E   E   E   E   
--------------------------------------------------|
--47--47--47--45--45--38--38--47--47--45--45--38--|
--35--35--35--35--35--35--35--35--35--35--35--35--|
--------------------------------------------------|
--------------------------------------------------|
--------------------------------------------------|


   |---3---|   |---3---|   |---3---|   |---3---|   
   E   E   E   E   E   E   E   E   E   E   E   E   
--42----------42----------42----------42----------|
--------------38----------------------38----------|
--35--35--35--35--35--35--35--35--35--35--35--35--|
--------------------------------------------------|
--------------------------------------------------|
--------------------------------------------------|


   |---3---|   |---3---|   |---3---|   |---3---|   
   E   E   E   E   E   E   E   E   E   E   E   E   
--42----------42----------42----------42----------|
--------------38----------------------38----------|
--35--35--35--35--35--35--35--35--35--35--35--35--|
--------------------------------------------------|
--------------------------------------------------|
--------------------------------------------------|


   |---3---|   |---3---|   |---3---|   |---3---|   
   E   E   E   E   E   E   E   E   E   E   E   E   
--42----------42----------42----------42----------|
--------------38----------------------38----------|
--35--35--35--35--35--35--35--35--35--35--35--35--|
--------------------------------------------------|
--------------------------------------------------|
--------------------------------------------------|


   |---3---|   |---3---|   |---3---|   |---3---|   
   E   E   E   E   E   E   E   E   E   E   E   E   
--42----------42----------42----------42----------|
--------------38----------------------38----------|
--35--35--35--35--35--35--35--35--35--35--35--35--|
--------------------------------------------------|
--------------------------------------------------|
--------------------------------------------------|


   |---3---|   |---3---|   |---3---|   |---3---|   
   E   E   E   E   E   E   E   E   E   E   E   E   
--42----------42----------42----------42----------|
--------------38----------------------38----------|
--35--35--35--35--35--35--35--35--35--35--35--35--|
--------------------------------------------------|
--------------------------------------------------|
--------------------------------------------------|


   |---3---|   |---3---|   |---3---|   |---3---|   
   E   E   E   E   E   E   E   E   E   E   E   E   
--42----------42----------42----------------------|
--38----------38------------------38--38--38--38--|
--35--35--35--35--35--35--35--35--35--35--35--35--|
--------------------------------------------------|
--------------------------------------------------|
--------------------------------------------------|


   |---3---|   |---3---|   |---3---|   |---3---|   
   E   E   E   E   E   E   E   E   E   E   E   E   
--42----------54----------54----------54----------|
--------------38----------------------38----------|
--35--35--35--35--35--35--35--35--35--35--35--35--|
--------------------------------------------------|
--------------------------------------------------|
--------------------------------------------------|


   |---3---|   |---3---|   |---3---|   |---3---|   
   E   E   E   E   E   E   E   E   E   E   E   E   
--54----------54----------54----------54----------|
--------------38----------------------38----------|
--35--35--35--35--35--35--35--35--35--35--35--35--|
--------------------------------------------------|
--------------------------------------------------|
--------------------------------------------------|


   |---3---|   |---3---|   |---3---|   |---3---|   
   E   E   E   E   E   E   E   E   E   E   E   E   
--42----------54----------54----------54----------|
--------------38----------------------38----------|
--35--35--35--35--35--35--35--35--35--35--35--35--|
--------------------------------------------------|
--------------------------------------------------|
--------------------------------------------------|


   |---3---|   |---3---|   |---3---|   |---3---|   
   E   E   E   E   E   E   E   E   E   E   E   E   
--------------------------42----------42----------|
--38--38--38--38--38--38--------------38----------|
--35--35--35--35--35--35--35--35--35--35--35--35--|
--------------------------------------------------|
--------------------------------------------------|
--------------------------------------------------|


   |---3---|   |---3---|   |---3---|   |---3---|   
   E   E   E   E   E   E   E   E   E   E   E   E   
--42----------54----------54----------54----------|
--------------38----------------------38----------|
--35--35--35--35--35--35--35--35--35--35--35--35--|
--------------------------------------------------|
--------------------------------------------------|
--------------------------------------------------|


   |---3---|   |---3---|   |---3---|   |---3---|   
   E   E   E   E   E   E   E   E   E   E   E   E   
--54----------54----------54----------54----------|
--------------38----------------------38----------|
--35--35--35--35--35--35--35--35--35--35--35--35--|
--------------------------------------------------|
--------------------------------------------------|
--------------------------------------------------|


   |---3---|   |---3---|   |---3---|   |---3---|   
   E   E   E   E   E   E   E   E   E   E   E   E   
--42----------54----------54----------54----------|
--------------38----------------------38----------|
--35--35--35--35--35--35--35--35--35--35--35--35--|
--------------------------------------------------|
--------------------------------------------------|
--------------------------------------------------|


   |---3---|   |---3---|   |---3---|   |---3---|   
   E   E   E   E   E   E   E   E   E   E   E   E   
--------------------------42----------42----------|
--38--38--38--38--38--38--------------38----------|
--35--35--35--35--35--35--35--35--35--35--35--35--|
--------------------------------------------------|
--------------------------------------------------|
--------------------------------------------------|


   |---3---|   |---3---|   |---3---|   |---3---|   
   E   E   E   E   E   E   E   E   E   E   E   E   
--42----------54----------54----------54----------|
--38----------------------38----------------------|
--35--35--35--35--35--35--35--35--35--35--35--35--|
--------------------------------------------------|
--------------------------------------------------|
--------------------------------------------------|


   |---3---|   |---3---|   |---3---|   |---3---|   
   E   E   E   E   E   E   E   E   E   E   E   E   
--42----------54----------54----------54----------|
--38----------------------38----------------------|
--35--35--35--35--35--35--35--35--35--35--35--35--|
--------------------------------------------------|
--------------------------------------------------|
--------------------------------------------------|


   |---3---|   |---3---|   |---3---|   |---3---|   
   E   E   E   E   E   E   E   E   E   E   E   E   
--42----------54----------54----------54----------|
--38----------------------38----------------------|
--35--35--35--35--35--35--35--35--35--35--35--35--|
--------------------------------------------------|
--------------------------------------------------|
--------------------------------------------------|


   |---3---|   |---3---|   |---3---|   |---3---|   
   E   E   E   E   E   E   E   E   E   E   E   E   
--42----------54----------42----------42----------|
--38----------------------38----------38----------|
--35--35--35--35--35--35--35--35--35--35--35--35--|
--------------------------------------------------|
--------------------------------------------------|
--------------------------------------------------|


   |---3---|   |---3---|   |---3---|   |---3---|   
   E   E   E   E   E   E   E   E   E   E   E   E   
--42----------54----------54----------54----------|
--38----------------------38----------------------|
--35--35--35--35--35--35--35--35--35--35--35--35--|
--------------------------------------------------|
--------------------------------------------------|
--------------------------------------------------|


   |---3---|   |---3---|   |---3---|   |---3---|   
   E   E   E   E   E   E   E   E   E   E   E   E   
--42----------54----------54----------54----------|
--38----------------------38----------------------|
--35--35--35--35--35--35--35--35--35--35--35--35--|
--------------------------------------------------|
--------------------------------------------------|
--------------------------------------------------|


   |---3---|   |---3---|   |---3---|   |---3---|   
   E   E   E   E   E   E   E   E   E   E   E   E   
--42----------54----------54----------54----------|
--38----------------------38----------------------|
--35--35--35--35--35--35--35--35--35--35--35--35--|
--------------------------------------------------|
--------------------------------------------------|
--------------------------------------------------|


   |---3---|   |---3---|   |---3---|   |---3---|   
   E   E   E   E   E   E   E   E   E   E   E   E   
--42----------54----------42----------------------|
--38----------------------38------38--38--38--38--|
--35--35--35--35--35--35--35--35--35--35--35--35--|
--------------------------------------------------|
--------------------------------------------------|
--------------------------------------------------|


     |---3---|   |---3---|   |---3---|   |---3---|   
     E   E   E   E   E   E   E   E   E   E   E   E   
|---42----------54----------54----------42----------|
|---------------38----------------------38----------|
|*--35--35--35--35--35--35--35--35--35--35--35--35--|
|*--------------------------------------------------|
|---------------------------------------------------|
|---------------------------------------------------|


   |---3---|   |---3---|   |---3---|   |---3---|   
   E   E   E   E   E   E   E   E   E   E   E   E   
--54----------54----------54----------42----------|
--------------38----------------------38----------|
--35--35--35--35--35--35--35--35--35--35--35--35--|
--------------------------------------------------|
--------------------------------------------------|
--------------------------------------------------|


   |---3---|   |---3---|   |---3---|   |---3---|   
   E   E   E   E   E   E   E   E   E   E   E   E   
--54----------54----------54----------42----------|
--------------38----------------------38----------|
--35--35--35--35--35--35--35--35--35--35--35--35--|
--------------------------------------------------|
--------------------------------------------------|
--------------------------------------------------|


   |---3---|   |---3---|   |---3---|   |---3---|     
   E   E   E   E   E   E   E   E   E   E   E   E     
--42----------54----------42----------54-----------||
--------------38----------------------38-----------||
--35--35--35--35--35--35--35--35--35--35--35--35--*||
--------------------------------------------------*||
---------------------------------------------------||
---------------------------------------------------||


   |---3---|   |---3---|   |---3---|   |---3---|   
   E   E   E   E   E   E   E   E   E   E   E   E   
--42----------54----------42----------54----------|
--------------38----------------------38----------|
--35--35--35--35--35--35--35--35--35--35--35--35--|
--------------------------------------------------|
--------------------------------------------------|
--------------------------------------------------|


   |--3--|   |-3-|     |--3--|   |---3---|   
   Q     E   E   Q     Q     E   E   E   E   
--42----------------------------------------|
--------38--38--47----38----38--38--38------|
--35------------------------------------35--|
--------------------------------------------|
--------------------------------------------|
--------------------------------------------|


   |--3--|   |-3-|  |--|   |-3-|  |--|   |-3-|  |--|   
   Q     E   E   S  S  E   E   S  S  E   E   S  S  E   
------------------------------------------------------|
--38----38--47--38-38-38--38--38-38-38--45--45-45-45--|
--43--------------------------------------------------|
------------------------------------------------------|
------------------------------------------------------|
------------------------------------------------------|


   |--3--|   |-3-|     |---3---|  |---3---|   
   Q     E   E   Q     E   E   E  E   E   E   
--42------------42------------42--L----------|
--------38--38--------38--38---------38--38--|
--35------------35------------35-------------|
---------------------------------------------|
---------------------------------------------|
---------------------------------------------|


   |--3--|   |-3-|  |--|   |-3-|  |--|   |---3---|   
   Q     E   E   S  S  E   E   S  S  E   E   E   E   
----------------------------------------------------|
--38----38--47--38-38-38--38--47-47-47--45--45--45--|
----------------------------------------------------|
----------------------------------------------------|
----------------------------------------------------|
----------------------------------------------------|


   |--3--|   |---3---|   |--3--|   |---3---|   
   Q     E   E   E   E   Q     E   E   E   E   
--42--------42----------42--------42----------|
------------------------38--------------------|
--35----35------35--35--35----35------35--35--|
----------------------------------------------|
----------------------------------------------|
----------------------------------------------|


   |--3--|   |---3---|   |--3--|   |---3---|   
   Q     E   E   E   E   Q     E   E   E   E   
--42--------42----------42--------42----------|
--38--------------------38--------------------|
--35----35------35--35--35----35------35--35--|
----------------------------------------------|
----------------------------------------------|
----------------------------------------------|


   |---3---|   |---3---|   |---3---|   |---3---|   
   E   E   E   E   E   E   E   E   E   E   E   E   
--42----------42----------42----------42----------|
--38----------38----------38----------38----------|
------35--35------35--35------35--35------35--35--|
--------------------------------------------------|
--------------------------------------------------|
--------------------------------------------------|


   |---3---|   |---3---|   |---3---|   |---3---|   
   E   E   E   E   E   E   E   E   E   E   E   E   
--42----------42----------42----------------------|
--38----------38----------38------38--38--38--38--|
------35--35------35--35------35------------------|
--------------------------------------------------|
--------------------------------------------------|
--------------------------------------------------|


     |---3---|   |---3---|   |---3---|   |---3---|   
     E   E   E   E   E   E   E   E   E   E   E   E   
|---42----------42----------42----------42----------|
|---------------38----------------------38----------|
|*--35--35--35--35--35--35--35--35--35--35--35--35--|
|*--------------------------------------------------|
|---------------------------------------------------|
|---------------------------------------------------|


   |---3---|   |---3---|   |---3---|   |---3---|   
   E   E   E   E   E   E   E   E   E   E   E   E   
--42----------42----------42----------42------42--|
--------------38----------------------38----------|
--35--35--35--35--35--35--35--35--35--35--35--35--|
--------------------------------------------------|
--------------------------------------------------|
--------------------------------------------------|


   |---3---|   |---3---|   |---3---|   |---3---|   
   E   E   E   E   E   E   E   E   E   E   E   E   
--42----------42----------42----------42----------|
--------------38----------------------38----------|
--35--35--35--35--35--35--35--35--35--35--35--35--|
--------------------------------------------------|
--------------------------------------------------|
--------------------------------------------------|


   |---3---|   |---3---|   |---3---|   |---3---|   
   E   E   E   E   E   E   E   E   E   E   E   E   
--42----------42----------42------42--42--42------|
--------------38----------------------38----------|
--35--35--35--35--35--35--35--35--35--35--35--35--|
--------------------------------------------------|
--------------------------------------------------|
--------------------------------------------------|


   |---3---|   |---3---|   |---3---|   |---3---|   
   E   E   E   E   E   E   E   E   E   E   E   E   
--42----------42----------42----------42----------|
--------------38----------------------38----------|
--35--35--35--35--35--35--35--35--35--35--35--35--|
--------------------------------------------------|
--------------------------------------------------|
--------------------------------------------------|


   |---3---|   |---3---|   |---3---|   |---3---|   
   E   E   E   E   E   E   E   E   E   E   E   E   
--42----------42----------42----------42----------|
--------------38----------------------38----------|
--35--35--35--35--35--35--35--35--35--35--35--35--|
--------------------------------------------------|
--------------------------------------------------|
--------------------------------------------------|


   |---3---|   |---3---|   |---3---|   |---3---|   
   E   E   E   E   E   E   E   E   E   E   E   E   
--42----------42----------42----------42----------|
--------------38----------------------38----------|
--35--35--35--35--35--35--35--35--35--35--35--35--|
--------------------------------------------------|
--------------------------------------------------|
--------------------------------------------------|


   |---3---|   |---3---|   |---3---|   |---3---|     
   E   E   E   E   E   E   E   E   E   E   E   E     
--42--42--42--42----------42--42--42---------------||
--------------38----------------------38--38--38---||
--35--35--35--35--35--35--35--35--35--35--35--35--*||
--------------------------------------------------*||
---------------------------------------------------||
---------------------------------------------------||


   |---3---|   |---3---|   |---3---|   |---3---|   
   E   E   E   E   E   E   E   E   E   E   E   E   
--42----------42----------42----------42----------|
--------------38----------------------38----------|
--35--35--35--35--35--35--35--35--35--35--35--35--|
--------------------------------------------------|
--------------------------------------------------|
--------------------------------------------------|


   |---3---|   |---3---|   |---3---|   |---3---|   
   E   E   E   E   E   E   E   E   E   E   E   E   
--42----------42----------42----------42----------|
--------------38----------------------38----------|
--35--35--35--35--35--35--35--35--35--35--35--35--|
--------------------------------------------------|
--------------------------------------------------|
--------------------------------------------------|


   |---3---|   |---3---|   |---3---|   |---3---|   
   E   E   E   E   E   E   E   E   E   E   E   E   
--42----------42----------42----------42----------|
--------------38----------------------38----------|
--35--35--35--35--35--35--35--35--35--35--35--35--|
--------------------------------------------------|
--------------------------------------------------|
--------------------------------------------------|


   |---3---|   |---3---|   |---3---|   |---3---|   
   E   E   E   E   E   E   E   E   E   E   E   E   
--42----------42----------42----------42----------|
--------------38----------------------38----------|
--35--35--35--35--35--35--35--35--35--35--35--35--|
--------------------------------------------------|
--------------------------------------------------|
--------------------------------------------------|


   |---3---|   |---3---|   |---3---|   |---3---|   
   E   E   E   E   E   E   E   E   E   E   E   E   
--42----------42----------42----------42----------|
--------------38----------------------38----------|
--35--35--35--35--35--35--35--35--35--35--35--35--|
--------------------------------------------------|
--------------------------------------------------|
--------------------------------------------------|


   |---3---|   |---3---|   |---3---|   |---3---|   
   E   E   E   E   E   E   E   E   E   E   E   E   
--42----------42----------42----------42----------|
--------------38----------------------38----------|
--35--35--35--35--35--35--35--35--35--35--35--35--|
--------------------------------------------------|
--------------------------------------------------|
--------------------------------------------------|


   |---3---|   |---3---|   |---3---|   |---3---|   
   E   E   E   E   E   E   E   E   E   E   E   E   
--42----------42----------42------42---L----------|
--------------38----------------------38--47--38--|
--35--35--35--35--35--35--35--35--35--35--35--35--|
--------------------------------------------------|
--------------------------------------------------|
--------------------------------------------------|


   |---3---|   |---3---|   |---3---|   |---3---|   
   E   E   E   E   E   E   E   E   E   E   E   E   
--42----------42----------42----------42----------|
--------------38----------------------38----------|
--35--35--35--35--35--35--35--35--35--35--35--35--|
--------------------------------------------------|
--------------------------------------------------|
--------------------------------------------------|


   |---3---|   |---3---|   |---3---|   |---3---|   
   E   E   E   E   E   E   E   E   E   E   E   E   
--42----------42----------42----------42----------|
--------------38----------------------38----------|
--35--35--35--35--35--35--35--35--35--35--35--35--|
--------------------------------------------------|
--------------------------------------------------|
--------------------------------------------------|


   |---3---|   |---3---|   |---3---|   |---3---|   
   E   E   E   E   E   E   E   E   E   E   E   E   
--42----------42----------42----------42----------|
--------------38----------------------38----------|
--35--35--35--35--35--35--35--35--35--35--35--35--|
--------------------------------------------------|
--------------------------------------------------|
--------------------------------------------------|


   |---3---|   |---3---|   |---3---|   |---3---|   
   E   E   E   E   E   E   E   E   E   E   E   E   
--42----------42----------42----------------------|
--------------------------38------38--38--38--38--|
--35--35--35--35--35--35--35--35--35--35--35--35--|
--------------------------------------------------|
--------------------------------------------------|
--------------------------------------------------|


   |---3---|   |---3---|   |---3---|   |---3---|   
   E   E   E   E   E   E   E   E   E   E   E   E   
--42----------54----------42----------54----------|
--------------------------38----------------------|
--35--35--35--35--35--35--35--35--35--35--35--35--|
--------------------------------------------------|
--------------------------------------------------|
--------------------------------------------------|


   |---3---|   |---3---|   |---3---|   |----3----|   
   E   E   E   E   E   E   E   E   E   S  S  E   E   
--54----------54----------54------------------------|
--------------------------38----------38-38-38--38--|
--35--35--35--35--35--35--35--35--35--35--L-35--35--|
----------------------------------------------------|
----------------------------------------------------|
----------------------------------------------------|


   |---3---|   |---3---|   |---3---|   |---3---|   
   E   E   E   E   E   E   E   E   E   E   E   E   
--42----------54----------42----------54----------|
--------------------------38----------------------|
--35--35--35--35--35--35--35--35--35--35--35--35--|
--------------------------------------------------|
--------------------------------------------------|
--------------------------------------------------|


   |---3---|   |---3---|   |---3---|   |----3----|   
   E   E   E   E   E   E   E   E   E   S  S  E   E   
--54----------54----------54------------------------|
--------------------------38----------38-38-38--38--|
--35--35--35--35--35--35--35--35--35--35--L-35--35--|
----------------------------------------------------|
----------------------------------------------------|
----------------------------------------------------|


   |---3---|   |---3---|   |---3---|   |---3---|   
   E   E   E   E   E   E   E   E   E   E   E   E   
--42----------54----------42----------54----------|
--------------------------38----------------------|
--35--35--35--35--35--35--35--35--35--35--35--35--|
--------------------------------------------------|
--------------------------------------------------|
--------------------------------------------------|


   |---3---|   |---3---|   |---3---|   |----3----|                            
   E   E   E   E   E   E   E   E   E   S  S  E   E      Q    Q     Q    Q     
--54----------54----------54------------------------|-------------46---------|
--------------------------38----------38-38-38--38--|--38--------------------|
--35--35--35--35--35--35--35--35--35--35--L-35--35--|-------------35---------|
----------------------------------------------------|------------------------|
----------------------------------------------------|------------------------|
----------------------------------------------------|------------------------|


   Q    Q    H           W                   W                 
--46------------------|-------------------|-------------------|
----------------------|-------------------|-------------------|
--35------------------|-------------------|-------------------|
----------------------|-------------------|-------------------|
----------------------|-------------------|-------------------|
----------------------|-------------------|-------------------|


  W                  
-------------------||
-------------------||
-------------------||
-------------------||
-------------------||
-------------------||




Duration Legend
---------------
W - whole
H - half
Q - quarter
E - 8th
S - 16th
T - 32nd
X - 64th
. - note dotted
|-n-|  - n-tuplets


Tablature Legend
----------------
L - tied note
x - dead note
g - grace note
(n) - ghost note
> - accentuded note
NH - natural harmonic
AH - artificial harmonic
TH - tapped harmonic
SH - semi harmonic
PH - pitch harmonic
h - hammer on
p - pull off
b - bend
br - bendRelease
pb - preBend
pbr - preBendRelease
brb - bendReleaseBend
\n/ - tremolo bar dip
\n - tremolo bar dive
-/n - tremolo bar Release up
/n\ - tremolo bar inverted dip
/n - tremolo bar return
-\n - tremolo bar Release down
S - shift slide
s - legato slide
/ -  slide into from below or out of upwards
\ -  slide into from above or out of downwards
~ - vibrato
W - wide vibrato
tr - trill
TP - tremolo picking
T - tapping
S - slap
P - pop
< - fade in
^ - brush up
v - brush down
Tap to rate this tab
# A B C D E F G H I J K L M N O P Q R S T U V W X Y Z