Guitaretab - guitar tabs
Song name
# A B C D E F G H I J K L M N O P Q R S T U V W X Y Z

Gamma Ray - Valley Of The Kings tab

 Valley Of The Kings                               


                                                                       Gamma Ray
Kai



      W                   H         E    Q.        H.           Q     
D#||-------------------|------------------------|--------------------|
A#||-------------------|-----------13br--L------|--L------------L----|
F#||-------------------|------------------------|--------------------|
C#||-------------------|------------------------|--------------------|
G#||-------------------|------------------------|--------------------|
D#||-------------------|------------------------|--------------------|


           \1                                                       
  E   E    H        Q       W                   Q    Q    H         
-------------------------|-------------------|---------------------|
-----13p--10--------L----|-------------------|---------------------|
-------------------------|-------------------|---------------------|
-------------------------|--7----------------|--3----3----5--------|
-------------------------|--5----------------|--1----1----3--------|
-------------------------|-------------------|---------------------|


  W                   Q    Q    H             E  E  Q    Q    E  S S  
-------------------|---------------------||--------------------------|
-------------------|---------------------||--------------------------|
-------------------|---------------------||*-------------------------|
--7----------------|--3----3----5--------||*-------------------------|
--5----------------|--1----1----3--------||---7--7---------------x-x-|
-------------------|---------------------||---5--5---------------x-x-|


  E  E  E  S S H           E  E  Q    Q    E  S S    E  E  E  S S H         
------------------------|-------------------------|------------------------|
------------------------|-------------------------|------------------------|
------------------------|-------------------------|------------------------|
------------------------|-------------------------|------------------------|
--3--3--3--x-5-L--------|--7--7---------------x-x-|--3--3--3--x-5-L--------|
--1--1--1--x-3-L--------|--5--5---------------x-x-|--1--1--1--x-3-L--------|


  W                   H        Q    Q       W                 
-------------------|---------------------|-------------------|
-------------------|---------------------|-------------------|
-------------------|---------------------|-------------------|
--5----------------|--L--------5----7----|--9----------------|
--3----------------|--L--------3----5----|--7----------------|
-------------------|---------------------|-------------------|


  S S S  S S  S S S  S S S S E  E     H        H           H.           E  E   
-----------------------------------|--------------------|---------------------|
-----------------------------------|--------------------|---------------------|
-----------------------------------|--------------------|---------------------|
-----------------------------5--4--|--2--------0--------|--2------------2--4--|
--7-8-7----7-----------------3--2--|--0--------2--------|--0------------0--2--|
--------10---10-8-7-10-8-7-5-------|-----------3--------|---------------------|


  H        H           H.           E  E     H        H         
--------------------|---------------------|--------------------|
--------------------|---------------------|--------------------|
--------------------|---------------------|--------------------|
--5-----------------|--0------------5--4--|--2--------0--------|
--3--------3--------|--2------------3--2--|--0--------2--------|
-----------1--------|--3------------------|-----------3--------|


  H.           E  E     H        H           W                 
---------------------|--------------------|-------------------|
---------------------|--------------------|-------------------|
---------------------|--------------------|-------------------|
--2------------2--4--|--5-----------------|-------------------|
--0------------0--2--|--3--------3--------|--5----------------|
---------------------|-----------1--------|--3----------------|


  W                   H        H           W                 
-------------------|--------------------|-------------------|
-------------------|--------------------|-------------------|
-------------------|--------------------|-------------------|
--7----------------|--3--------5--------|--7----------------|
--5----------------|--1--------3--------|--5----------------|
-------------------|--------------------|-------------------|


  H        H             W                   H        H         
---------------------||-------------------|--------------------|
---------------------||-------------------|--------------------|
--------------------*||-------------------|--------------------|
--3--------5--------*||--5----------------|--------------------|
--1--------3---------||--3----------------|--3--------5--------|
---------------------||-------------------|--1--------3--------|


  H.           E  E     Q    Q    H           H.           E  E   
---------------------|---------------------|---------------------|
---------------------|---------------------|---------------------|
---------------------|---------------------|---------------------|
--7------------7--5--|--3----3----5--------|--7------------7--5--|
--5------------5--3--|--1----1----3--------|--5------------5--3--|
---------------------|---------------------|---------------------|


  Q    Q    H           S S E  S S E  S S E  S S S S  
---------------------|-------------------------------|
---------------------|-------------------------------|
---------------------|-------------------------------|
--3----3----5--------|------9------9------9----7-7-7-|
--1----1----3--------|------7------7------7----5-5-5-|
---------------------|--0-0----0-0----0-0------------|


  S S E  S S E  S S  S S S S S S    S S E  S S E  S S E  S S S S  
---------------------------------|-------------------------------|
---------------------------------|-------------------------------|
---------------------------------|-------------------------------|
------9------9---------9-8---7---|------9------9------9----7-7-7-|
------7------7--7-9-10-----9---8-|------7------7------7----5-5-5-|
--0-0----0-0---------------------|--0-0----0-0----0-0------------|


                                                          |---3---|   
  S S E  S S E  S S  S S S S S S     Q.       E    Q      E   E   E   
---------------------------------|---------------------------12--13--|
---------------------------------|--15b------15b--15~----15----------|
---------------------------------|-----------------------------------|
------9------9---------9-8---7---|-----------------------------------|
------7------7--7-9-10-----9---8-|-----------------------------------|
--0-0----0-0---------------------|-----------------------------------|


   Q       S   S S  S  Q     S   S   S  S  
--12b~----12br-L-L------------------------|
-------------------13---------------------|
----------------------12----14p-12p-10--x-|
------------------------------------------|
------------------------------------------|
------------------------------------------|


   S  E.   E.    S  S   S   S  S  S  S  S  S  
---------------------------------------------|
---------------------------------------------|
--12-10--------------------------------------|
----------12~---12-10h-12p-10----10----------|
------------------------------12----12-11-10-|
---------------------------------------------|


   S  S  S  S  S   S  S  S  S   S  S S Q      
---------------------------------------------|
---------------------------------------------|
---------------------------10h-12-10-9-L~----|
---------------------10----------------------|
-----------10-10h-11----12-------------------|
--13-10-13-----------------------------------|


  E  E  E  S   S  E  E  E  S    S    E  E  E  S S E  E  E  E   
----------------------------------|---------------------------|
----------------------------------|---------------------------|
-----------4-4g5p-L--4-----9-9g10-|--L--9--7--5-4-L--5--4-----|
--7-----7---------------7---------|------------------------5--|
-----7----------------------------|---------------------------|
----------------------------------|---------------------------|


  E  E  E  S   S  E  E  E  S    S    E  E  E  S S E  E  E  E   
----------------------------------|---------------------------|
----------------------------------|---------------------------|
-----------4-4g5p-L--4-----9-9g10-|--L--9--7--5-4-L--5--4-----|
--7-----7---------------7---------|------------------------5--|
-----7----------------------------|---------------------------|
----------------------------------|---------------------------|

[ Tab from: http://www.guitaretab.com/g/gamma-ray/310276.html ]
  E  E  E  S   S E   E  E   S     S    E   E  E  S S E  E  E  E   
------------------------------------|----------------------------|
------------------------------------|----------------------------|
-----------6-6g7-Lh--6-----11-11g12-|--L--11--9--7-6-L--7--6-----|
--9-----9---------------9-----------|-------------------------7--|
-----9------------------------------|----------------------------|
------------------------------------|----------------------------|


  E  E  E  S   S  E  E  E   S     S    E   E  E  S S Q.     E   
------------------------------------|--------------------------|
------------------------------------|--------------------------|
-----------6-6g7p-L--6-----11-11g12-|--L--11--9--7-6-L------L--|
--9-----9---------------9-----------|--------------------------|
-----9------------------------------|--------------------------|
------------------------------------|--------------------------|


                      \2        
   H          T   T   E.  Q     
-------------------------------|
--15b--------12h-15p-12---L----|
-------------------------------|
-------------------------------|
-------------------------------|
-------------------------------|


                                                                   \2    
   |---3---|          |---6---|   |---6---|  |---6---|   |---6---|       
   S   S   S   T   S. S   S   S   S   S   S  S   S   S   S   S   S Q     
--12h-15p-12h-15p-12-12h-15p-12h-15p-12h-15-12h-15p-12h-15p-12h-15------|
------------------------------------------------------------------------|
------------------------------------------------------------------------|
-------------------------------------------------------------------9----|
------------------------------------------------------------------------|
------------------------------------------------------------------------|


   S  S  S  S  S  S  S  S  S  S  S  S  Q         Q     E   E   H         
---------------------------------------------|--16----17--19--22--------|
--------------------15-----------------------|--------------------------|
--13-14-16-14-13-14----14-13-14-13-----------|--------------------------|
-----------------------------------14-12~----|--------------------------|
---------------------------------------------|--------------------------|
---------------------------------------------|--------------------------|


  W                    W                   W                 
-------------------|--------------------|-------------------|
-------------------|--------------------|-------------------|
-------------------|--------------------|-------------------|
-------------------|--------------------|-------------------|
--6----------------|--10----------------|--6----------------|
--4----------------|---8----------------|--4----------------|


  S S S S S S S S S S S S S S S S     E   E  S S S  S S S S S  S  S S S  
----------------------------------|-------------------------------------|
----------------------------------|-------------------------------------|
----------------------------------|-------------------------------------|
----------------------------------|-------------------------------------|
--5-5-5-5-5-5-5-5-5-5-5-5-5-5-5-5-|--10--10--------10---------10-10-----|
--3-3-3-3-3-3-3-3-3-3-3-3-3-3-3-3-|---8---8--x-x-x--8---x-x-x--8--8-x-x-|


  E  E  S S S S S S S S S S S S     E   E  S S S  S S S S S  S  S S S  
--------------------------------|-------------------------------------|
--------------------------------|-------------------------------------|
--------------------------------|-------------------------------------|
--------------------------------|-------------------------------------|
--6--6--------8---------8-8-----|--10--10--------10---------10-10-----|
--4--4--x-x-x-6---x-x-x-6-6-x-x-|---8---8--x-x-x--8---x-x-x--8--8-x-x-|


  E  E  S S S S S S S S S S S S    W                   H        Q     Q     
--------------------------------|-------------------|----------------------|
--------------------------------|-------------------|----------------------|
--------------------------------|-------------------|----------------------|
--------------------------------|--8----------------|--L--------8----10----|
--6--6--------8---------8-8-----|--6----------------|--L--------6-----8----|
--4--4--x-x-x-6---x-x-x-6-6-x-x-|-------------------|----------------------|


   W                    S  S  S  S  S  S  S  S  S  S  S S E  E   
--------------------|-------------------------------------------|
--------------------|-------------------------------------------|
--------------------|-------------------------------------------|
--12----------------|-------------------------------------5--4--|
--10----------------|--10-11-10----10---------------------3--2--|
--------------------|-----------13----13-11-10-13-11-10-8-------|


  H        H           H.           E  E     H        H         
--------------------|---------------------|--------------------|
--------------------|---------------------|--------------------|
--------------------|---------------------|--------------------|
--2--------0--------|--2------------2--4--|--5-----------------|
--0--------2--------|--0------------0--2--|--3--------3--------|
-----------3--------|---------------------|-----------1--------|


  H.           E  E     H        H           W                 
---------------------|--------------------|-------------------|
---------------------|--------------------|-------------------|
---------------------|--------------------|-------------------|
--0------------5--4--|--2--------0--------|--5----------------|
--2------------3--2--|--0--------2--------|--3----------------|
--3------------------|-----------3--------|-------------------|


  H        H           H        H           H.           E  E   
--------------------|--------------------|---------------------|
--------------------|--------------------|---------------------|
--------------------|--------------------|---------------------|
--------------------|--2--------0--------|--2------------2--4--|
--3--------5--------|--0--------2--------|--0------------0--2--|
--1--------3--------|-----------3--------|---------------------|


  H        H           H.           E  E     H        H         
--------------------|---------------------|--------------------|
--------------------|---------------------|--------------------|
--------------------|---------------------|--------------------|
--5-----------------|--0------------5--4--|--2--------0--------|
--3--------3--------|--2------------3--2--|--0--------2--------|
-----------1--------|--3------------------|-----------3--------|


  W                   H        H           W                 
-------------------|--------------------|-------------------|
-------------------|--------------------|-------------------|
-------------------|--------------------|-------------------|
--5----------------|--------------------|-------------------|
--3----------------|--3--------5--------|--7----------------|
-------------------|--1--------3--------|--5----------------|


  H        H           W                   H        H         
--------------------|-------------------|--------------------|
--------------------|-------------------|--------------------|
--------------------|-------------------|--------------------|
--------------------|-------------------|--------------------|
--3--------5--------|--7----------------|--3--------5--------|
--1--------3--------|--5----------------|--1--------3--------|


  W                   H        H           S S S S S S S S H          
-------------------|--------------------|---------------------------||
-------------------|--------------------|---------------------------||
-------------------|--------------------|---------------------------||
--7----------------|--------------------|---------------------------||
--5----------------|--3--------5--------|--7-7-7-7---5-7------------||
-------------------|--1--------3--------|--5-5-5-5---3-5------------||




Duration Legend
---------------
W - whole
H - half
Q - quarter
E - 8th
S - 16th
T - 32nd
X - 64th
. - note dotted
|-n-|  - n-tuplets


Tablature Legend
----------------
L - tied note
x - dead note
g - grace note
(n) - ghost note
> - accentuded note
NH - natural harmonic
AH - artificial harmonic
TH - tapped harmonic
SH - semi harmonic
PH - pitch harmonic
h - hammer on
p - pull off
b - bend
br - bendRelease
pb - preBend
pbr - preBendRelease
brb - bendReleaseBend
\n/ - tremolo bar dip
\n - tremolo bar dive
-/n - tremolo bar Release up
/n\ - tremolo bar inverted dip
/n - tremolo bar return
-\n - tremolo bar Release down
S - shift slide
s - legato slide
/ -  slide into from below or out of upwards
\ -  slide into from above or out of downwards
~ - vibrato
W - wide vibrato
tr - trill
TP - tremolo picking
T - tapping
S - slap
P - pop
< - fade in
^ - brush up
v - brush down
Related for Valley Of The Kings tab
×
Best way to learn
"Valley Of The Kings"