Guitaretab - guitar tabs
Song name
# A B C D E F G H I J K L M N O P Q R S T U V W X Y Z

Gandalf Murphy And The Slambovian Circus Of Dreams - Glide tab

*****
Glide
*****

By Gandalf Murphy and the Slambovian circus of dreams

Intro: x2
[ Tab from: http://www.guitaretab.com/g/gandalf-murphy-and-the-slambovian-circus-of-dreams/143110.html ]
Guitar 1
  A                                          F#5
e|-----------------------------------------------------------||
B|-----------------------------------------------------------||
G|-2--2---x-x-----2--2--------2--2---x-x-x-x-----------------||
D|-2—-4p2-x-x-2-2-2—-4p2------2—-4p2-x-x-x-x-4--4-4-4--------||
A|-0--0---x-x-0-0-0--0---4p0--0--0---x-x-x-x-4--4-4-4--------||
E|-------------------------------------------2--2-2-2--------||
Guitar 2
e|-5--------------------------5------------------------------||
B|-5--------------------------5------------------------------||
G|-2--------------------------2------------------------------||
D|-2--------------------------2------------------------------||
A|-0--------------------------0------------------------------||
E|-----------------------------------------------------------||



Verse for one guitar:
  A                         F#5
e|-5-5-5-5-0----------------------||
B|-5-5-5-5-5-2---2-2-2-2-2--------||
G|-2---------2---2-2-2-2-2--------||
D|-2---------2---2-2-2-2-2---4----||
A|-0---------0---0-0-0-0-0-4-4----||
E|---------------------------2----||

Chorus:
Same as intro but with no muted strums

That’s all I feel like figuring out
-Adam Brunell
Email: Atwbthe3rd@yahoo.com

Related for Glide tab
Advertisement will be closed in 10 seconds