Song name
# A B C D E F G H I J K L M N O P Q R S T U V W X Y Z

Gandalf Murphy And The Slambovian Circus Of Dreams - Nighttime tab

Tabbed by: MurderBoy.
Email:

Tuning: DADGBE

Intro/Verse Lead X2
e|-------------------------------------------------------------------------|
B|-------------------------------------------------------------------------|
G|-------------------------------------------------------------------------|
D|-------------------------------------------------------------------------|
A|-10-(X4)-12-(X4)-8-(X4)-14-(X4)-10(X4)-12(X4)-8-(X8)---------------------|
D|-------------------------------------------------------------------------|

Intro/Chorus Rhythm X1
e|-------------------------------------------------------------------------|
B|-------------------------------------------------------------------------|
G|-------------------------------------------------------------------------|
D|-5------7------3------7------5------7------3-----------------------------|
A|-5-(X8)-7-(X8)-3-(X8)-7-(X8)-5-(X8)-7-(X8)-3-(X16)-----------------------|
D|-5------7------3------7------5------7------3-----------------------------|

Verse X2

Pre Chorus X2               X1     
e|-------------------------------------------------------------------------|
B|--------------------------12-10-12-10-12-10------------------------------|
G|-------------------------------------------------------------------------|
D|-5------3------7---------------------------------------------------------|
A|-5-(X8)-3-(X8)-7-(X16)---------------------------------------------------|
D|-5------3------7---------------------------------------------------------|

Chorus X2

Verse X2

Pre Chorus X2                X1

Chorus X2

Interlude (Verse Riff) X4

Chorus X4

End

She breaks my heart and blurs my eyes.

Tap to rate this tab
# A B C D E F G H I J K L M N O P Q R S T U V W X Y Z