Guitaretab - guitar tabs
Song name
# A B C D E F G H I J K L M N O P Q R S T U V W X Y Z

Gandalf Murphy And The Slambovian Circus Of Dreams - Fumes tab

Gandalf Murphy and the Slambovian Circus of Dreams
Fumes

This is a good song and is easy to play
Tuning is a step down on every string

Intro/Verse/Chorus:
   C**            C/B             C/A              C/G
D|------------------------------------------------------------------||
A|-----1-------1-------1-------1-------1-------1-------1-------1----||
F|---0---0---0---0---0---0---0---0---0---0---0---0---0---0---0---0--||
C|------------------------------------------------------------------||
G|-3-------3-------2-------2-------0-------0------------------------||
D|-------------------------------------------------3-------3--------||

Then Add to End Verse/Chorus:
   D7/E            C/G            C/A             G      
D|----------------------------------------------------------------||
A|-----1-------1------1-------1-------1-------1-------3-------3---||
F|---2---2---2---2--0---0---0---0---0---0---0---0---0---0---0---0-||
C|----------------------------------------------------------------||
G|--------------------------------0-------0-----------------------||
D|-0-------0-------3------3-----------------------3-------3-------||

[ Tab from: http://www.guitaretab.com/g/gandalf-murphy-and-the-slambovian-circus-of-dreams/70025.html ]
This occurs at 2:06 and is a bridge. I repeated everything because
it is the order is kind of confusing, but it is still very easy to play
     
   C                      C/B     C/A              G
D|------------------------------------------------------------------||
A|-----1-------1-------1-------1-------1-------1-------1-------1----||
F|---0---0---0---0---0---0---0---0---0---0---0---0---0---0---0---0--||
C|------------------------------------------------------------------||
G|-3-------3-------3-------2-------0-------0------------------------||
D|-------------------------------------------------3------(3)-------||
    C                     C/B     C/A              G
D|------------------------------------------------------------------||
A|-----1-------1-------1-------1-------1-------1-------1-------1----||
F|---0---0---0---0---0---0---0---0---0---0---0---0---0---0---0---0--||
C|------------------------------------------------------------------||
G|-3-------3-------3-------2-------0-------0------------------------||
D|-------------------------------------------------3------(3)-------||
    C                     C/G
D|----------------------------------||
A|-----1-------1-------1-------1----||
F|---0---0---0---0---0---0---0---0--||
C|----------------------------------||
G|-3-------3-------3----------------||
D|-------------------------3--------||
   C                      C/B     C/A              G
D|------------------------------------------------------------------||
A|-----1-------1-------1-------1-------1-------1-------1-------1----||
F|---0---0---0---0---0---0---0---0---0---0---0---0---0---0---0---0--||
C|------------------------------------------------------------------||
G|-3-------3-------3-------2-------0-------0------------------------||
D|-------------------------------------------------3------(3)-------||
   C              C/B              C/A
D|------------------------------------------------------------------||
A|-----1-------1-------1-------1-------1-------1-------1-------1----||
F|---0---0---0---0---0---0---0---0---0---0---0---0---0---0---0---0--||
C|------------------------------------------------------------------||
G|-3-------3-------2-------2-------0-------0-------0-------0--------||
D|------------------------------------------------------------------||
   G
D|----------------------------------||
A|-----0-------0-------0-------0----||
F|---0---0---0---0---0---0---0---0--||
C|----------------------------------||
G|----------------------------------||
D|-3-------3-------3-------3-------3||

Then go back to verse riff and finish with the other riff.
That's it

**The chords actually sound a major second lower when the tuning is considered

Another way to look at these chords is:
C   Cmaj7   Amin7    Gsus
D/E   Gsus   Amin7   G

-Adam Brunell

Related for Fumes tab