Song name
# A B C D E F G H I J K L M N O P Q R S T U V W X Y Z

Gandalf Murphy And The Slambovian Circus Of Dreams - Alligators tab

Song Title: Alligators	
Band: Gandalf Murphy and the Slambovian Circus of Dreams
Members: Joziah Longo, Tink Lloyd, Sharkey McEwen, Tony Zuzulo
Album: Live at the Town Crier
Band Website: www.slambovia.com

Tabbed by: Adeagle (adeagle18@stny.rr.com)

Tuning: 1 Step Down (D G C F A D)

Intro + Verse + Chorus
D|-0-------------------------------------------------------------------||
A|-1-----------------------0--3--0--------------------0--3--0----------||
F|-0------0-----------0------------2-0-2-0--0-0-0-0------------2-0-2-0-||
C|-2-2--2-2-x-x-2-x-x-2--2------------------2-2-2-2--------------------||
G|-3-3--3-3-x-x-3-x-x-3--2------------------2-2-2-2--------------------||
D|-3-3--3-3-x-x-3-x-x-3--0------------------0-0-0-0--------------------||
                                       Mute . . . .

After Chorus x 9:
....When we put our minds together.
D|---------||
A|---------||
F|---------||
C|--9------||
G|--9------||
D|--7------||

Bridge:
Goodnight..sleep tight...don't forget to say your prayers
                  
D|--0---0---0---0-0-0-----------------||
A|--0---0---0---0-0-0-----------------||
F|--4---3---2---0-0-0-----------------||
C|--5---4---3---2-2-2-----------------||
G|--5---4---3---2-2-2-----------------||
D|--3---2---1---0-0-0-0-1-2-3---------||
Tap to rate this tab
 
# A B C D E F G H I J K L M N O P Q R S T U V W X Y Z