Guitaretab - guitar tabs
Song name
# A B C D E F G H I J K L M N O P Q R S T U V W X Y Z

Gandalf Murphy And The Slambovian Circus Of Dreams - Gonna Get Up tab

Song Title: Gonna Get Up
Band: Gandalf Murphy and the Slambovian Circus of Dreams
Members: Joziah Longo, Tink Lloyd, Sharkey McEwen, Tony Zuzulo
Album: Flapjacks from the Sky (2004)
Band Website: www.slambovia.com

This tab is the authorís own work and represents his / her 
interpretation of the song.  

Tabbed by: Alex Dunckle  adeagle18@stny.rr.com

Tuning: Standard (E A D G B E)

Intro x 6: 
E|-----------------------------||
B|-----------------------------||
G|-----------------------------||
D|-----2-22--------------------||
A|-----x-----------------------||
E|-0-0-------------------------||
[ Tab from: http://www.guitaretab.com/g/gandalf-murphy-and-the-slambovian-circus-of-dreams/70696.html ]
Verse: (As muted as you can make it)
E|------------------------------------------------------------------||
B|------------------------------------------------------------------||
G|---9-7p4-9-7--------9-7p4-9-7-------9-7p4-9-7---------9-7p4-9-----||
D|--------------7-7-------------7b--------------7-7h9---------------||
A|------------------------------------------------------------------||
E|-0----------------0---------------0-----------------0-------------||

Chorus 1 + Outro:

E|---7--7---7---7---6---6---6---6----9---9---9----9---4---4--4---4-||
B|-8--8---8---8---7---7---7---7----10--10--10--10---5---5---5--5---||
G|-----------------------------------------------------------------||
D|-----------------------------------------------------------------||
A|-----------------------------------------------------------------||
E|-----------------------------------------------------------------||

E|---4---4---4---4---7--7--7--7----9----9-----9---9--4--4---4--4-----||
B|-5---5---5---5---8--8--8--8---10---10---10---10---5--5--5---5------||
G|-------------------------------------------------------------------||
D|-------------------------------------------------------------------||
A|-------------------------------------------------------------------||
E|-------------------------------------------------------------------||
Related for Gonna Get Up tab