Gandhi - Estrellame tab

ESTRELLAME-GANDHI.

SOLO DE GUITARRA.

TRANSCRITO POR CHRISTIAN WALSH.

b=bending.
p=pull-off.

(3:51).
e|----------------------------------------------------9-11-12-12b-|
B|----------------------------------------9b--9-12b-----------------|
G|-------------------------9-11--11b--9-----------------------------|
D|----------------9--11----------------------------------------------|
A|-7--9--11--12------------------------------------------------------|
E|-------------------------------------------------------------------|

e|-12--11--9----------------------------------------|
B|------------12--10--9-----------------------------|
G|-----------------------11--9----------------------|
D|------------------------------11--9---------------|
A|-------------------------------------12--11--9--7-|
E|--------------------------------------------------|

e|-19--19--19--19------------------------19-----19-----19-----19----19b19b|
B|-17--17--17--17---17-191719-19b17p19--17p19--17p19-17p1917p19-------|
G|-17--17--17--17----------------------------------------------------------|
D|-------------------------------------------------------------------------|
A|-------------------------------------------------------------------------|
E|-------------------------------------------------------------------------|

e|-21b22b22b-22-|
B|----------------|
G|----------------|
D|----------------|
A|----------------|
E|----------------|

YO LO SAQUE A OIDO ENTONCES NO SE SI ES EXATAMENTE IGUAL A COMO LO TOCA FEDERICO MIRANDA 
GUITARRISTA DE GANDHI.

P.S. SI SUENA.
Tap to rate this tab
 
# A B C D E F G H I J K L M N O P Q R S T U V W X Y Z