Gandhi - Estrellame tab

ESTRELLAME-GANDHI

SOLO DE GUITARRA

TRANSCRITO POR ALEXANDER SALAS M.
(3:51)
e|----------------------------------------------------—-—-—--------12b------|
B|----------------------------------13bup-13bdown-------—------12-----------|
G|----------------9-11-11b-9-13b-13-----—----------13-13-11-13--------------|
D|-----------9-11-----------------------------------------------------------|
A|------9-11----------------------------------------------------------------|
E|-9-12---------------------------------------------------------------------|

e|-12-11-9-11b updown-9------------------------------16-16--------------16--|
B|----------------------9-7-------7-9b updown/17 ----17-17-----17-17/19-----|
G|--------------------------9-6-9-----------------16-16-16--16--------------|
D|--------------------------------------------------------------------------|
A|--------------------------------------------------------------------------|
E|--------------------------------------------------------------------------|

e|-19-16------------------------------------------------—------|
B|-------19-17-19b updown-17-—-17—19-17---—-19—17-----19-17----|
G|---------------------------18---------18----------18------18-|
D|-------------------------------------------------------------|
A|-------------------------------------------------------------|
E|-------------------------------------------------------------|

e|--------------------19b-19b-22b-22b-22-|
B|-19-17----19----17---------------------|
G|-------18----18------------------------|
D|---------------------------------------|
A|---------------------------------------|
E|---------------------------------------|

Ps: saque el solo a oido asi q no esta tan perfecto como lo toca el maestro federico miranda 
Pero creo q suena muy bien espero q lo disfruten y se lo enseρen a sus amigos.
Tap to rate this tab
 
# A B C D E F G H I J K L M N O P Q R S T U V W X Y Z