Guitaretab - guitar tabs
Song name
# A B C D E F G H I J K L M N O P Q R S T U V W X Y Z

Gang Green - Lets Drink Some Beer tab

-------------------------------------------------------------------------------
			     Let's Drink Some Beer - Gang Green
-------------------------------------------------------------------------------
Tabbed by: dipstar
Email: gogglespaizano@yahoo.com

Tuning: Standard


Verse
                            3x
e|---------------|--------------|------|--------|
B|---------------|--------------|------|--------|
G|:--7-------10--|--10--10--10-:|--12--|--12----|
D|---7-------10--|--10--10--10--|--12--|--12----|
A|---5-55555-8---|--8---8---8---|--10--|--10----|
E|---------------|--------------|------|--------|


Chorus

e||-----------|------------|------------|
B||-----------|------------|------------|
G||--5--------|------------|--10--9--5--|
D||--5--------|--7---------|--10--9--5--|
A||--3-33333--|--7---------|--8---7--3--|
E||-----------|--5-555555--|------------|
[ Tab from: http://www.guitaretab.com/g/gang-green/97204.html ]
e|-------------|------------|------------|------------|
B|-------------|------------|------------|------------|
G|:-7----------|--5---------|------------|--10--9--5-:|
D|--7----------|--5---------|--7---------|--10--9--5--|
A|--5-5555555--|--3-333333--|--7---------|--8---7--3--|
E|-------------|------------|--5-555555--|------------|


Fill 1

e|---------|
B|---------|
G|--10--9--|
D|--10--9--|
A|--8---7--|
E|---------|


Verse

Chorus


Fill 2

e|------------|-----|
B|------------|-----|
G|--10--7--5--|--7--|
D|--10--7--5--|--7--|
A|--8---9--3--|--5--|
E|------------|-----|


Drum Break

Guitar Solo over Verse

Chorus


Fill 3

e|------------|------------|-----|
B|------------|------------|-----|
G|--10--7--5--|--10--7--5--|--7--|
D|--10--7--5--|--10--7--5--|--7--|
A|--8---9--3--|--8---9--3--|--5--|
E|------------|------------|-----|



| /  slide up
| \  slide down
| h  hammer-on
| p  pull-off
| ~  vibrato
| +  harmonic
| x  Mute note
===============================================================================
Related for Lets Drink Some Beer tab
Advertisement will be closed in 10 seconds