Song name
# A B C D E F G H I J K L M N O P Q R S T U V W X Y Z

Gang Of Four - I Love A Man In Uniform tab

Help us improve GuitareTab! Take a short survey!
this is my first ever tab, so go easy.
I think this is correct but I'm really not sure.

Great song though, just sad i cant work out the rest.


e|-----------------------------------------------------------------------------|
B|-----------------------------------------------------------------------------|
G|--------2------------2-------------------------------------------------------|
D|-----2-----------0h2-------2-------------------------------------------------|
A|--0--------------------------0-----------------------------------------------|
E|-----------------------------------------------------------------------------|


e|-----------------------------------------------------------------------------|
B|-----------------------------------------------------------------------------|
G|-------------5------4-5------------------------------------------------------|
D|--------5----------------5---------------------------------------------------|
A|-----------------------------------------------------------------------------|
E|-----------------------------------------------------------------------------|


That's all folks.
Related for I Love A Man In Uniform tab