Song name
# A B C D E F G H I J K L M N O P Q R S T U V W X Y Z

Garage Hymnal - Fairest Lord Jesus tab

FAIREST LORD JESUS - Garage Hymnal

Tuning:Standard, Capo 3.

Acoustic guitar riff (Intro, Verse, Chorus):

e|---------0-------0-------0-------0-------0-------0-------0-------0---------|
B|---------1-------1-------1-------1-------0-------0-------3-------3---------|
G|---------0-------0-------0-------0-------0-------0-------0-------0---------|
D|---------------------------------------------------------------------------|
A|-----3-------3-------3-------3-------3-------3-------3-------3-------------|
E|---------------------------------------------------------------------------|  x2

e|---------0-------0-------0-------0-------1-------1-------1-------1---------|
B|---------1-------1-------1-------1-------1-------1-------1-------1---------|
G|---------2-------2-------2-------2-------2-------2-------2-------2---------|
D|---------------------------------------------------------------------------|
A|-----0-------0-------0-------0-------3-------3-------3-------3-------------|
E|---------------------------------------------------------------------------|

e|---------0-------0-------0-------0-------0-------0-------0-------0---------|
B|---------1-------1-------1-------1-------0-------0-------3-------3---------|
G|---------0-------0-------0-------0-------0-------0-------0-------0---------|
D|---------------------------------------------------------------------------|
A|-----3-------3-------3-------3-------3-------3-------3-------3-------------|
E|---------------------------------------------------------------------------|  

Electric guitar riff during the verse(I transcribed it relative to capo 3 as well):

e|-----------------------------0-------3---------------3---------------------|
B|-----1-------1-------3-----------------------------------------------------|
G|---------------------------------------------------------------------------|
D|---------------------------------------------------------------------------|
A|---------------------------------------------------------------------------|
E|---------------------------------------------------------------------------|

e|-----------------------------0------/7---------------5---------------------|
B|-----1-------1-------3-----------------------------------------------------|
G|---------------------------------------------------------------------------|
D|---------------------------------------------------------------------------|
A|---------------------------------------------------------------------------|
E|---------------------------------------------------------------------------|

e|-----------------------------0-------3---------------3---------------------|
B|-----1-------1-------3-----------------------------------------------------|
G|---------------------------------------------------------------------------|
D|---------------------------------------------------------------------------|
A|---------------------------------------------------------------------------|
E|---------------------------------------------------------------------------|

e|----/5--------------/7--------------/8---------------/10-------------------|
B|---------------------------------------------------------------------------|
G|---------------------------------------------------------------------------|
D|---------------------------------------------------------------------------|
A|---------------------------------------------------------------------------|
E|---------------------------------------------------------------------------|



************************************

| /   slide up
| \   slide down
| h   hammer-on
| p   pull-off
| ~   vibrato
| +   harmonic
| x   Mute note
| b   Bend
| pb  Pre-bend
| br  Bend release
| pbr Pre-bend release
| brb Bend release bend

************************************
Tap to rate this tab
# A B C D E F G H I J K L M N O P Q R S T U V W X Y Z