Song name
# A B C D E F G H I J K L M N O P Q R S T U V W X Y Z

Garage Punk Bandits - Outta Control tab

#-----------------------------------------------------------------------------#
#-- File created with Instab - http://www.pconline.com/~smcarey/instab.html --#
#-----------------------------------------------------------------------------#

Author/Artist: Garage Punk Bandits
Title: Outta Control
Transcribed by: Bill Hermann
Email: fidget@sfstereo.com

------------------------------------------------------------------------------|
------------------------------------------------------------------------------|
-5-------7---10---------------------------------------------------------------|
-5---5---7---10---------------------------------------------------------------|
-3---5---5---8----------------------------------------------------------------|
-----3------------------------------------------------------------------------|
 *play each chord 6x

------------------------------------------------------------------------------|
------------------------------------------------------------------------------|
-5----------------------------------------------------------------------------|
-5---5---7---3----------------------------------------------------------------|
-3---5---7---3----------------------------------------------------------------|
-----3---5---1----------------------------------------------------------------|
 so when I get home you can lecture me... *play each chord 6x, palm muted
Tap to rate this tab
 
# A B C D E F G H I J K L M N O P Q R S T U V W X Y Z