Song name
# A B C D E F G H I J K L M N O P Q R S T U V W X Y Z

Garbage - Push It tab

 #----------------------------------PLEASE NOTE--------------------------------#
#This file is the author's own work and represents their interpretation of the#
#song. You may only use this file for private study, scholarship, or research.#
#-----------------------------------------------------------------------------#
#-- File created with Instab - http://www.pconline.com/~smcarey/instab.html --#
#-----------------------------------------------------------------------------#

Author/Artist: Garbage
Title: Push It
Transcribed by: Saverain
/ slide up
\ slide down
b bend
r release bend

Standard tuning

-----|------7--7--7---------------------------------------------|-------------|
-----|-------------------8---8--8------10--10--10-----8---8--8--|-------------|
-----|-9-9-----------9-9---9-------9-9------------9-9---9-------|-------------|
-----|----------------------------------------------------------|-------------|
-----|----------------------------------------------------------|-------------|
-----|----------------------------------------------------------|-------------|


-----|-------12----------|-------------|-7--7-7-7-7-7-7-|---------------------|
-----|-12-12-12-15-------|-------------|-5--5-5-5-5-5---|---------------------|
-----|-14-14----14-------|-------------|----------------|---------------------|
-----|-------------------|-------------|----------------|---------------------|
-----|-------------------|-------------|----------------|---------------------|
-----|-------------------|-------------|----------------|---------------------|
   PreChorus riffs "Don't Worry"       "My head ..."

-----|------------------------------------------------------------------------|
-----|-----12---------12----12b14r12--------12--------12----12b-b-b------12---|
-----|-15------9--12-----12----------9--15------9--12----12----------15-------|
-----|------------------------------------------------------------------------|
-----|------------------------------------------------------------------------|
-----|------------------------------------------------------------------------|
   G1 Chorus

-----|-0--0--0--0--0-0-0---0-0--0--0--0--0--0-0-0------|----------------------|
-----|-0--0--0--0--0-0-0---0-0--0--0--0--0--0-0-0------|----------------------|
-----|-3--4--0--0--2-0-2br-0-0--3--4--0--0--2-0-2b-b-b-|----------------------|
-----|-------------------------------------------------|----------------------|
-----|-------------------------------------------------|----------------------|
-----|-------------------------------------------------|----------------------|
   G2 Chorus

---------------------------------------------------------|--------------------|
--------12----12b14r12-----------12--------12----12b-b-b-|--------------------|
-9--12-----12----------9--9--15------9--12----12---------|--------------------|
---------------------------------------------------------|--------------------|
---------------------------------------------------------|--------------------|
---------------------------------------------------------|--------------------|
   G1 Chorus continued

-----|-----------------------------------------|------------------------------|
-----|-------------------------------7---------|------------------------------|
-----|-----9--12--11--9--------9--7------------|------------------------------|
-----|-----------------------------------------|------------------------------|
-----|-----------------------------------------|------------------------------|
-----|-----------------------------------------|------------------------------|


-----|---------------------------------------------------------|--------------|
-----|-12-----12-12--10----10----10--8-----8-8--10----10----10-|--------------|
-----|----9-9------------9-----9-------7-7----------7-----7----|--------------|
-----|---------------------------------------------------------|--------------|
-----|---------------------------------------------------------|--------------|
-----|---------------------------------------------------------|--------------|
    Verse & Prechorus w prechorus riffs

-----|-----------------------------------------------------------------|------|
-----|-15b17--------------------------115b17---14b15-------------------|------|
-----|-----------------------------------------------------------------|------|
-----|-----------------------------------------------------------------|------|
-----|-----------------------------------------------------------------|------|
-----|-----------------------------------------------------------------|------|
             tremo

-----|--------------------|------------------------|------------|------------|
-----|--------------------|---------------------7--|------------|------------|
-----|--------------------|-9-9-12-11-9--9-9-7-----|------------|------------|
-----|--------------------|------------------------|-2-/--/--/--|------------|
-----|--------------------|------------------------|-2-/--/--/--|------------|
-----|--------------------|------------------------|------------|------------|
        Prechorus Chorus                                          Chorus out
Tap to rate this tab
# A B C D E F G H I J K L M N O P Q R S T U V W X Y Z