Song name
# A B C D E F G H I J K L M N O P Q R S T U V W X Y Z

Garbage - Untouchable tab

GARBAGE
UNTOUCHABLE

Submitted by:Keri (I am correcting my other "Untouchable" Tab) 

This tab is originally by : 
A_Violet_Fluid@hotmail.com
2OO4

Standard Tuning

Intro/Bridge:

|-----------------------------------------|
|--14------------14--12---------------12--|
|------14-----14---------13--------13-----|
|----------16----------------15-15--------|
|-----------------------------------------|
|-----------------------------------------|

|-------------------------------|
|--10------------10--9----------|
|------11-----11--------10------|
|----------11---------------11--|
|-------------------------------|
|-------------------------------|

Chorus:

|-----------------------------|
|-----------------------------|
|-----------------------------|
|--4----4--6----6--7----7--9--|
|--x----x--x----x--x----x--x--|
|--2----2--4----4--5----5--7--|

Alternative Way:

|------------------------------------|
|------------------------------------|
|--11----11--13----13--14----14--16--|
|---x-----x---x-----x---x-----x---x--|
|---9-----9--11----11--12----12--14--|
|------------------------------------|
 
A_Violet_Fluid@hotmail.com
2OO4
Tap to rate this tab
# A B C D E F G H I J K L M N O P Q R S T U V W X Y Z