Song name
# A B C D E F G H I J K L M N O P Q R S T U V W X Y Z

Garbage - Supernatural tab

Highlighted       Show chord diagrams
Band: Garbage
Song Title: Supernatural
Tuning: Normal

Chords used for this song

       D     Em    G
E|-----2-----------3-----|
B|-----3-----------3-----|
G|-----2-----------------|
D|-----0-----2-----------|
A|-----------2-----2-----|
E|-----------------3-----|


Intro:
Em

Verse 1:

[Em]Built a king on [G]compliments 
[D]Charisma and [Em]advertisements 
[Em]Still they see him shimmer [G]ephemeral 
[D]It ain't [Em]supernatural 

[Em]Out of body [G]experience 
[D]I flew around the [Em]little rooms 
[Em]Intravenous [G]demerol 
[D]And it ain't [Em]supernatural 

[Strum Pattern A]
[D]It ain't, it ain't supernatural 
[Em]Supernatural maybe [play harmonics on 12th fret of stings 1 & 2]

Guitar lead play twice

E|------------0-----------------0---0---|
B|----------------0-----------------0---|
G|--------7----------------7--------9---|
D|---/9---------------/9------------9---|
A|----------------------------------7---|
E|----------------------------------0---|


[Em]Sudden smell 
A [G]certain view 
[D]Sparks a case of [Em]deja vu 
[Em]It ain't [G]inexplicable 
[D]No, it ain't [Em]supernatural 
[D]It ain't, it ain't [Em]supernatural 
[Em]Supernatural maybe [Guitar lead play twice]
[Em]Maybe 
[Em]Maybe 
[Em]Maybe



Strum Pattern A
(*=harmonic)
|-2---2-2-2---2-2-2---2-2-2---2-2-0--------*12*--------|
|-3---3-3-3---3-3-3---3-3-3---3-3-0--------*12*--------|
|-0h2-2-2-0h2-2-2-0h2-2-2-0h2-2-2-0--------------------|
|-0---0-0-0---0-0-0---0-0-0---0-0-2--------------------|
|---------------------------------2--------------------|
|---------------------------------0--------------------|
Tap to rate this tab
# A B C D E F G H I J K L M N O P Q R S T U V W X Y Z