Song name
# A B C D E F G H I J K L M N O P Q R S T U V W X Y Z

Garbage - Witness To Your Love tab

Help us improve GuitareTab! Take a short survey!
Highlighted       Show chord diagrams
Band: Garbage
Song Title: Wittness To Your Love
Tuning: Normal (Capo III)

Chors Used For This Song

       C     D   Dmaj7   G     A
E|-----0-----2-----2-----3-----0-----|
B|-----1-----3-----2-----3-----2-----|
G|-----0-----2-----2-----0-----2-----|
D|-----2-----0-----0-----0-----2-----|
A|-----3-----X-----X-----2-----0-----|
E|-----X-----X-----X-----3-----X-----|

Capo III
Intro Riff:
E|---------5-----------5---------3-----------3---|
B|-------3---3-------2---------1---1-------0-----|
G|-----------------------------------------------|
D|---0-----------0---------0-----------0---------|
A|-----------------------------------------------|
E|-----------------------------------------------|

Song Is Pretty Easy Only 4 Chords D A C G Just Repeat Chords For Whole Song

(Play Intro Riff)
Was we ever so young?
We were tripping into town
Like there were Cannongate meets up,
With the dirty little side street,

[D]I can't [A]remember much,
[C]Though I,know we [G]did like to shoplift
[D]We knew our [A]lives stretched up to the [C]stars,
And we were the [G]masters of the universe,


(Play Intro Riff Once)


[D]Were we ever [A]really that [C]smart?
How [G]did we come this far?
[D]We would go [A]skipping over the [C]heart,
Over the [G]city that shaped us,
[D]We would go [A]leaping into the [C]arms,
Of [G]anything that scared us,
[D]So long [A]before we learned the [C]law,
Fearless and [G]stupid and reckless and..

[D]Free..............[A]We were [C]free..[G]
So [D]free.............[A]We were [C]free...[G]

(Sound Effects In This Section)

Ashes to ashes and dust to dust,
I was a witness to your love,
Ashes to ashes and dust to dust,

I was a witness to your love,[D] [A] [C] [G]
To your love,[D] [A] [C] [G]

[D]Free..............[A]We were [C]free..[G]
So [D]free.............[A]We were [C]free...[G]

[D]We were so [A]free
[G]A witness to your [D]love,

[D]We were so [A]free
[G]A witness to your [D]love,

[D]We were so [A]free
[G]A witness to your [D]love,

[D]We were so [A]free

You're on patrol for me,
I'm on patrol for you,

You're on patrol for me,
I'm on patrol for you. 


Related for Witness To Your Love tab