Song name
# A B C D E F G H I J K L M N O P Q R S T U V W X Y Z

Garbage - Sleep Together tab

Band: Garbage
Song Title: Sleep Together
Tuning: 1/2 step down

      A    A5/E  B    B5/F#   Bm    C     D    Em     G    G5/D
Eb|---5-----12---------14-----7-----3-----5-----3-----------10---|
Bb|---5-----10---------12-----7-----5-----7-----5-----------8----|
Gb|---6-----9----------11-----7-----5-----7-----4-----------7----|
Db|---X----------9------------------X-----X-----------5----------|
Ab|---X----------9------------------X-----X-----------5----------|
Eb|---X----------7------------------X-----X-----------3----------|

Song notes:
This song is mostly keyboards and drums but has a wicked guitar part that is strummed 
fast in

the background.


Intro RiffA: (Keyboard Transcribed For Guitar) Play 6 Times

Eb|---------------------------------------19-----------|
Bb|---19------19--18----------18--19----------19--18---|
Gb|-------16--------------16---------------------------|
Db|----------------------------------------------------|
Ab|----------------------------------------------------|
Eb|----------------------------------------------------|

Intro Chords:
Played during the vocals Eh.........Eh......
B5 G5 B5 G5 B5 G5 B5 G5


Chords For The First Verse

     B5/F#  G5/D   Bm    A5/E    A
Eb|---14-----10-----7-----12-----5---|
Bb|---12-----8------7-----10-----5---|
Gb|---11-----7------7-----9------6---|
Db|----------------------------------|
Ab|----------------------------------|
Eb|----------------------------------|


[B5/F#]I got you crawling up [G5/D]a mountain
[B5/F#]Hanging round my neck [G5/D]
[B5/F#]I got you twisted round [G5/D] my finger
[B5/F#]Crawling round my legs [G5/D]

The [Em]emptiness
The [G5/D]craziness
[B5/F#]Satisfy this [A]hungriness

[Bm]Darling [G5/D]
How would it[A5/E]feel?

Chorus:
Chords Used For The Chorus

     Em     C     D
Eb|---3-----3-----5---|
Bb|---5-----5-----7---|
Gb|---4-----5-----7---|
Db|-------------------|
Ab|-------------------|
Eb|-------------------|


[Em}If we [C]sleep together [D]
Will you [C]like me better
[Em]If we come together
[D]We'll go [C]down forever
[Em]If we sleep together
[D]Will I like you better
[Em]If we come together
[D]Prove it now or never

Verse 2:

[B5/F#]Make me a pretty [G5/D]person
[B5/F#]Make me feel like I belong [G5/D]
[B5/F#]Make me hard[G5/D] and make me happy
[B5/F#]Make me beautiful [G5/D]

The [Em]emptiness
The [G5/D]craziness
[B5/F#]Satisfy this [A]hungriness

[Bm]Darling [G5/D]
How would it[A5/E]feel?

Chorus

[E5/B]If we sleep [G5/D]together
[B5/F#]Nothing [G5/D]satisfies me baby

[E5/B]If we sleep [G5/D]together
[B5/F#]I'll wear something [G5/D]pretty baby

[E5/B]If we [G5/D]sleep together
[B5/F#]Give me what I [G5/D]crave now baby

[E5/B]If we sleep [G5/D]together
[B5/F#]Save the rest for [G5/D]later baby

[E5/B]If we sleep [G5/D]together
You will drive me [G5/D]crazy baby

[E5/B]If we sleep [G5/D]together
[E5/B]I save it all for you [G5/D]my baby

[Em]If we sleep together [D] [C]
[Em]If we sleep together [D] [C] [Em] (fade out).....


The Simple Version

INTRO
|------------------------19-------|
|-19----19-18-----18-19-----19-18-|
|----16--------16-----------------|
|---------------------------------|
|---------------------------------|
|---------------------------------|


|-------------------------|
|-------------------------|
|-4-----4-----4-----4-----|
|-4--5--4--5--4--5--4--5--|
|-2--5--2--5--2--5--2--5--|
|----3-----3-----3-----3--|


VERSE
|-------------------------|
|-------------------------|
|-4-----4-----4-----4-----|
|-4--5--4--5--4--5--4--5--|
|-2--5--2--5--2--5--2--5--|
|----3-----3-----3-----3--|

|-------------------------|
|-------------------------|
|-4--------2--4-----2--2--|
|-4--5--2--2--4--5--2--2--|
|-2--5--2--0--2--5--0--0--|
|----3--0--------3--------|


CHORUS - Implied chords

|-0--3--2--0--|
|-0--3--3--1--|
|-0--0--2--0--|
|-2--0--0--2--|
|-2--2-----3--|
|-0--3--------|


Play intro again


VERSE 2 - Same


CHORUS 2 - Same


OUTRO
|-0-|
|-0-|
|-0-|
|-2-|
|-2-|
|-0-|

 Lead
|------------------------24-------|
|-24----24-23-----23-24-----24-23-|
|----21--------21-----------------|
|---------------------------------|
|---------------------------------|
|---------------------------------|
Tap to rate this tab
# A B C D E F G H I J K L M N O P Q R S T U V W X Y Z