Song name
# A B C D E F G H I J K L M N O P Q R S T U V W X Y Z

Garbage - Bad Boyfriend tab

Bad Boyfriend  We play it in G.....the actual song is in F

e|----------------------------------------------------------------------|
B|----------------------------------------------------------------------|
G|---------------------------------------------------------5-5-5--8-8-8-|
D|-5-5-5--8-8-8--5-5-5--8-8-8--5-5-5--8-8-8--5-5-5--8-8-8--5-5-5--8-8-8-|  4x
A|-5-5-5--8-8-8--5-5-5--8-8-8--5-5-5--8-8-8--5-5-5--8-8-8--3-3-3--6-6-6-|
E|-3-3-3--6-6-6--3-3-3--6-6-6--3-3-3--6-6-6--3-3-3--6-6-6---------------|

e|-----------------------------------|
B|-----------------------------------|
G|-5-5-5---8-8-8---9-9-9-------------|
D|-5-5-5---8-8-8---9-9-9-------------|   4x
A|-3-3-3---6-6-6---5-5-5-------------|
E|-----------------------------------|

	SMALL soloing

e|---------------------------------------------------------|
B|---------------------------------------------------------|
G|---------------------------------5-5-5---8-8-8-----------|
D|-5-5-5---8-8-8---5-5-5---8-8-8---5-5-5---8-8-8---pause---|
A|-5-5-5---8-8-8---5-5-5---8-8-8---3-3-3---6-6-6---pause---|
E|-3-3-3---6-6-6---3-3-3---6-6-6-------------------pause---|

e|-----------------------------------------------------------------|
B|-----------------------------------------------------------------|
G|-------------------------------------------------5-5-5---8-8-8---|
D|-5-5-5---8-8-8---5-5-5---8-8-8---5-5-5---8-8-8---5-5-5---8-8-8---|
A|-5-5-5---8-8-8---5-5-5---8-8-8---5-5-5---8-8-8---3-3-3---6-6-6---|
E|-3-3-3---6-6-6---3-3-3---6-6-6---3-3-3---6-6-6-------------------|

e|------------------------------------|
B|------------------------------------|
G|-----------------5-5-5---8-8-8------|
D|-5-5-5---8-8-8---5-5-5---8-8-8------|  6x
A|-5-5-5---8-8-8---3-3-3---6-6-6------|
E|-3-3-3---6-6-6----------------------|

JUST BASS NOTE FOR END
Tap to rate this tab
 
# A B C D E F G H I J K L M N O P Q R S T U V W X Y Z