Garbage - Only Happy When It Rains tab

ONLY HAPPY WHEN IT RAINS

GARBAGE

verse 1

E ------------------------------------------|
H ------------------------------------------|
G -------------------4-6------------------4-|
D 6----6-4----4-2----4-6----2----2-4----4-4-|
A 6----6-4----4-2----2-4----2----2-4----4-2-|
E 4----4-2----2-0-----------0----0-2----2---|

chorus

E --------------------|
H 6----4----5----4----|
G 6----5----6----4----|
D 6----6----7----4----|   x2
A 4----6----7----2----|
E -----4----5---------|

verse 2 solo guitar

E -----------    ------|
H ----9------    ------|
G --------6b- x3 -4----|
D ------6----    ------|
A -----------    ------|
E -----------    ------|

solo

E ------------------------------------15-----------16-|
H ----------14-----------16---------------------------|
G 11-13-13b----11-13-13b----11-13-13b----11-13-13b----|
D ----------------------------------------------------|
A ----------------------------------------------------|
E ----------------------------------------------------|

E -------------|
H 17b----------|
G ----18-16-18-|
D -------------| x4
A -------------|
E -------------|
Tap to rate this tab
 
# A B C D E F G H I J K L M N O P Q R S T U V W X Y Z