Song name
# A B C D E F G H I J K L M N O P Q R S T U V W X Y Z

Garbage - Special tab

Highlighted       Show chord diagrams
Band: Garbage
Song Title: Special	
Tuning: Eb Ab Db Gb Bb Eb

Chords used for this song.

       E     C#m   F#m   B     A     B5    A5    F#5    E5    C#5   B/D#
Eb|-----7-----4-----2-----2------------------------------------------------|
Bb|-----9-----5-----2-----4-----2------------------------------------4-----|
Gb|-----9-----6-----2-----4-----2-----4-----2-----11-----9-----6-----4-----|
Db|-----9-----6-----4-----4-----2-----4-----2-----11-----9-----6-----4-----|
Ab|-----7-----4-----4-----2-----------2-----------9------7-----4-----6-----|
Eb|-----------------2------------------------------------------------------|


Intro Riff:

Eb|-----------------------------------|-----------------------------------|
Bb|-----------0-----------0-----------|-----------0-----------0-----------|
Gb|-------2-----------2-----------2---|-------2-----------2-----------2---|
Db|---4-----------4-----------4-------|---2-----------2-----------2-------|
Ab|-----------------------------------|-----------------------------------|
Eb|-----------------------------------|-----------------------------------|

Eb|--------------------------------------|-------|
Bb|--------------------------------------|-------|
Gb|-----------4-----------4---6-p.o.-4---|---4---|
Db|-------4-----------4------------------|---4---|
Ab|---6-----------6----------------------|---2---|
Eb|--------------------------------------|-------|

Verse 1:

[E]I'm living without [C#m]you 
[E]I know all about [C#m]you 
[F#m]I have run you down into the ground [B]
[F#m]Spread disease about you over town [B]

[E]I used to adore [C#m]you 
[E]I couldn't control [C#m]you 
[F#m]There was nothing that I wouldn't do [B]
[F#m]To keep myself around and close to you [B]


Chorus:
Listen to the song for placement of Fill Riff A

Fill Riff A
Let the notes in this riff ring through out. 
Eb|-----------4---2---|-----------4---2---|-----------4---2---|-----------4---2---|
Bb|-------2-----------|-------2-----------|-------4-----------|-------4-----------|
Gb|---2---------------|---2---------------|---4---------------|---4---------------|
Db|-------------------|-------------------|-------------------|-------------------|
Ab|-------------------|-------------------|-------------------|-------------------|
Eb|-------------------|-------------------|-------------------|-------------------|

Do you have an opinion? [A]
A mind of your own? [B]
I thought you were special [A]
I thought you should know [B]
But I've run out of patience [F#5] [E]
I couldn't care less [B/D#] [C#5] [B5]



I... 
I...

For the AHH AHH AHH  part you can play this riff B

Fill Riff B
Eb|--------------------------------|
Bb|---7---10---9---7---5---7---9---|
Gb|--------------------------------|
Db|--------------------------------|
Ab|--------------------------------|
Eb|--------------------------------| 

Do you have an opinion? [A]
A mind of your own? [B]
I thought you were special [A]
I thought you should know [B]


[E]I used to amuse [C#m]you 
[E]I knew that I'd use [C#m]you 
[F#m]Now you're here and begging for a chance [B]
[F#m]But there's no way in hell I'd take you back [B]

Do you have an opinion? [A]
A mind of your own? [B]
I thought you were special [A]
I thought you should know [B]
But I've run out of patience [A]
I've run out of comments [C#m]
I'm tired of the violence [F#5] [E]
I couldn't care less [B/D#] [C#5] [B5]

I'm looking for a new [A]
I'm looking for a new [C#m]
I'm looking for a new [A]
I'm looking for a new [C#m]

For the Ahh Ahh parts you can play fill riff C

Fill Riff C
Eb|------------------------------|
Bb|---5---4----7---7---5---------|
Gb|------------------------------|
Db|------------------------------|
Ab|------------------------------|
Eb|------------------------------|

We were the talk of the town [A]
We were the talk of the town [C#m]
We were the talk of the town [A]
We were the talk of the town [C#m]

I thought you were special[A]
I thought you were special[C#m]
I thought you were special[A]
I thought you were special[C#m]

Tap to rate this tab
 
# A B C D E F G H I J K L M N O P Q R S T U V W X Y Z