Song name
# A B C D E F G H I J K L M N O P Q R S T U V W X Y Z

Garbage - Number 1 Crush tab

Highlighted       Show chord diagrams
I have updated this song more chords added in more background stuff. Enjoy any questions 
free to ask.

Band: Garbage
Song Title: #1 Crush
Tuning: Drop D Tuning (D A D G B E)

Chords used for this song.

	Bb5  G5    Bb    Eb    Cm    Gm   
   C5    D5
E|-----------------1-----6-----3-----3-----------------------|
B|-----------------3-----8-----4-----3-----------------------|
G|-----------------3-----8-----5-----3-----8-----5-----------|
D|-----8-----5-----3-----8-----5-----5-----8-----5-----0-----|
A|-----8-----5-----1-----6-----3-----------6-----3-----0-----|
D|-----8-----5-----------------------5-----------------0-----|

Main Guitar Riff:
The main guitar riff starts at (0:11)
Play the riff through out the first verse

There are a couple ways to play this intro. I will put bot hin and let you choose. Since

this song is in Drop D tuning playing Version 2 may sound better cause you can let that

D string just ring through out the riff.

Intro Riff Version 1:
E|-----------------------------------|
B|-----------------------------------|
G|-------7-------7-------7-----------|
D|---0-------6-------0-------6---7---|
A|-----------------------------------|
D|-----------------------------------|

Intro Riff Version 2:
E|-----------------------------------|
B|-------3-------3-------3-----------|
G|-----------1---------------1---2---|
D|---0---------------0---------------|
A|-----------------------------------|
D|-----------------------------------|

Riff A
E|--------------------------------------------------------------|
B|--------------------------------------------------------------|
G|--------------------------------------------------------------|
D|--------------------------------------------------------------|
A|--------------------------------------------------------------|
D|-----5-(Bend Up to)-6-(let go and let the open string ring)---|


I would die for you
I would die for you
I've been dying just to feel you by my side [Bb5] [G5]
To know that you're mine  [Riff A]

[Intro Riff Version 1]
I will cry for you
I will cry for you
I will wash away your pain with all my tears [Bb5] [G5]
And drown your fear [Riff A]

For this part listen for the D5 & G5 also Riff A & Riff B listen to song for the cues.

It has all parts in it pick your poison as to what to play.

[D5]Ahh Ahh Ahhh Ahhh Ahhh [D5] [D5] [D5]

Ahh Ahh Ahhh Ahhh Ahhh

[Bb5]Ah Ah Ah Ahhhhh[G5]

[D5] [D5] [D5]Ahh Ahh Ahhh Ahhh Ahhh

Verse 2: Play intro riff

I will pray for you
I will pray for you
I will sell my soul for something pure and true [Bb5] [G5]

Someone like you [Riff A]

[Bb]See your face every place that I walk in
[Gm]Hear your voice every time that I am talking
[Eb]You will believe in me
[Cm]And I will never be ignored [Riff A]

Intro Riff Version 3:
E|-------3-------3-------3-----------|
B|-----------2---------------2---3---|
G|---0---------------0---------------|
D|-----------------------------------|
A|-----------------------------------|
D|-----------------------------------|

[Intro Riff Version 3]
I will burn for you
Feel pain for you
I will twist the knife and bleed my aching heart
And tear it apart

I will lie for you
Beg and steal for you
I will crawl on hands and knees until you see
You're just like me

[Bb]Violate all the love that I'm missing
[Gm]Throw away all the pain that I'm living
[Eb]You will believe in me
[Cm]And I can never be ignored [D5][Riff A]

For the outro just go with it. It has a little of the whole song.
[Intro Riff 1] [Riff B] & [Riff A].

If you want to get fancy for this part strum once harmonics on strings 5,4,3,2 fret 7

and let them ring into feedback.

I would die for you
I would kill for you
I will steal for you
I'd do time for you
I will wait for you [G5]
I'd make room for you [D5]
I'd sail ships for you [Bb5] [G5]
To be close to you [D5]
To be part of you [G5]
'Cause I believe in you
I believe in you [D5]
I would die for you[Riff A]


Riff B
This is the AHH AHH AHH Part

E|---------------------------|
B|-------------10---9---10---|
G|---/7---/10----------------|
D|---------------------------|
A|---------------------------|
D|---------------------------|

E|---------------------------|
B|--------------10---9---10--|
G|---/7---/10----------------|
D|---------------------------|
A|---------------------------|
D|---------------------------|

E|---------------------------|
B|--------------10---8-------|
G|---/7---/10----------------|
D|---------------------------|
A|---------------------------|
D|---------------------------|

E|---------------------------|
B|--------------10---9---10--|
G|---/7---/10----------------|
D|---------------------------|
A|---------------------------|
D|---------------------------|
Tap to rate this tab
 
# A B C D E F G H I J K L M N O P Q R S T U V W X Y Z