Song name
# A B C D E F G H I J K L M N O P Q R S T U V W X Y Z

Garbage - Androgyny tab

Garbage : Androgyny

Tabbed by MattyD

For clarity I have only outlined the motifs - you will have to play for a while with strumming 
patterns to get this sounding decent on acoustic guitar. Piece it together well and the chorus
can really cook!

Verse
e|-0-----0-0----0---0---------------------------------------------|
B|-3/5\3-1-0----3---1--0------------------------------------------|
G|-2/4\2-2-2----2---2--0------------------------------------------|
D|-0-----0-2----0---0--2------------------------------------------|
A|---------0-----------2------------------------------------------|
E|----------------------------------------------------------------|


Pre Chorus                   |-- First Time --|  |-- 2nd Time --|
e|-0-----0-1----0---0-0-3-----------------------------------------|
B|-3/5\3-1-1----3-5-3-1-3-----------------------------------------|
G|-2/4\2-2-2----2/4\2-2-4-----------------------------------------|
D|-0-----0-3----0---0-0-5-------2------------------7-harmonic-----|
A|---------3------------5----------0h2-5--0h2------7-harmonic-----|
E|---------1------------3----0------------------------------------|


Chorus
e|----------------------------------------------------------------------------------|
B|----------------------------------------------------------------------------------|
G|-----0------------------0-------------------------------------4-------------------|
D|-----2---2----------0---2---0--------------2---0----------4---4---4---------------|
A|-2---2---0h2-5--0h2-x---0---0h2-5--0h2-5---5---5h2-5--0h2-2---2---0h2-5--0h2------|
E|-0---0---0---0--0---3---3---3p0-0--0---5---5---5p0-0--0-----------0---0--0-0------|


Bridge (Eb Fm Ab Bm7) --- End on Em
e|-------------------------------0--------------------------------|
B|-------------3-----------------0--------------------------------|
G|-0---1---5---2-----------------0--------------------------------|
D|-1---3---6---4-----------------2-------7-harmonic---------------|
A|-1---3---6---2-----------------2-------7-harmonic---------------|
E|-3---1---4---------------------0--------------------------------|
Tap to rate this tab
# A B C D E F G H I J K L M N O P Q R S T U V W X Y Z