Song name
# A B C D E F G H I J K L M N O P Q R S T U V W X Y Z

Garbage - Bad Boyfriend tab

This is my first tab so i hope u like it.
Also try to add more tabs on as u hear the song.


e|-------------------------------------------------------------------------|
B|-------------------------------------------------------------------------|
G|-------------------------------------------------------------------------|
D|-3-3-3---6-6-6---3-3-3---6-6-6---8-8-8---11-11-11------------------------|
A|-3-3-3---6-6-6---3-3-3---6-6-6---8-8-8---11-11-11------------------------|
E|-1-1-1---4-4-4---1-1-1---4-4-4---6-6-6---9--9--9-------------------------|

e|-------------------------------------------------------------------------|
B|-------------------------------------------------------------------------|
G|-------------------------------------------------------------------------|
D|-3-3-3---6-6-6---3-3-3---6-6-6---3-3-3---8-8-8---11-11-11----------------|
A|-3-3-3---6-6-6---3-3-3---6-6-6---3-3-3---8-8-8---11-11-11----------------|
E|-1-1-1---4-4-4---1-1-1---4-4-4---1-1-1---6-6-6----9--9--9----------------|

e|-------------------------------------------------------------------------|
B|-------------------------------------------------------------------------|
G|-------------------------------------------------------------------------|
D|-3-3-3---6-6-6---3-3-3---------------------------------------------------|
A|-3-3-3---6-6-6---3-3-3---------------------------------------------------|
E|-1-1-1---4-4-4---1-1-1---------------------------------------------------|


Rory
Tap to rate this tab
# A B C D E F G H I J K L M N O P Q R S T U V W X Y Z