Guitaretab - guitar tabs
Song name
# A B C D E F G H I J K L M N O P Q R S T U V W X Y Z

Garbage - 13 X Forever tab

13 X Forever - Garbage
-------------------------------------------------------------------------------
Tabbed by:  Stephanie Wallis
Email: wateva_govna_treva@hotmail.co.uk

Tuning: normal
Introduction:
[ Tab from: http://www.guitaretab.com/g/garbage/60686.html ]
e|----------------   -------------------------------------------------------|
B|------4---4---4-   ----4---6----4---4--------4---4---4--------------------|
G|----2----2--2---   --2---2----2----2-2-----2----2--2----------------------|
D|--3-----3--3-3-x2 3---------3-3--3---3--3-----3--3-3---------------------|
A|----------------   -------------------------------------------------------|
E|----------------   -------------------------------------------------------|

e|---------------------------------------------------------------------------|
B|---------------------------------------------------------------------------|
G|-0-2-0-430--0-2-0-430--0-2-0-430-------------------------------------------|
D|---------------------------------------------------------------------------|
A|---------------------------------------------------------------------------|
E|---------------------------------------------------------------------------|


I will add more later
Related for 13 X Forever tab