Song name
# A B C D E F G H I J K L M N O P Q R S T U V W X Y Z

Garbage - Sex In Not The Enemy tab

NodOuBter90


GARABGE
SEX IS NOT THE ENEMY
BLEED LIKE ME


Standard tuning


intro

  -----------------------------------------|
  -----------------------------------------|
  -----------------------------------------|
  -----------------------------------------|
  --1-1-1-1/-8-8-8-8--------------6-6-6-6--|
  ---------------------4-4-4-4-------------|


  ----------------------------------------------|
  ----------------------------------------------|
  ------------10-10-10-10----------8-8-8-8------|
  ----8-8-8-8--8-8-8--8---6-6-6-6--8-8-8-8------|
  ----8-8-8-8--8-8-8--8---6-6-6-6--6-6-6-6------|
  ----6-6-6-6-------------4-4-4-4---------------|


verse


 -------------------------------------------|
  ------------------------------------------|
  ------------------------------------------|
  ------------------------------------------|
  --1-1-1-1/-8-8-8-8--------------6-6-6-6---|
  ---------------------4-4-4-4--------------|

chorus
                ...a revolution...
  ----------------------------------------------|
  ----------------------------------------------|
  ------------10-10-10-10----------8-8-8-8------|
  ----8-8-8-8--8-8-8--8---6-6-6-6--8-8-8-8------|
  ----8-8-8-8--8-8-8--8---6-6-6-6--6-6-6-6------|
  ----6-6-6-6-------------4-4-4-4---------------|

interlude


   ----------------------------------------------13----17------------|
   ------------------------------------16b--16-----------------------|
   ----------------6b-r----------------------------------------------|
   -----------------------6~-----------------------------------------|
   -----6b-r---------------------------------------------------------|
   ------------4~----------------------------------------------------|

at this part you do a full bend and play the two notes back and forth then release the bend

   ----6fb----6-------6--------6-------6------6--------6--------------|
   ----9fb--------9--------9-------9-------9------9--------9r---------|
   -------------------------------------------------------------------|
   -------------------------------------------------------------------|
   -------------------------------------------------------------------|
   -------------------------------------------------------------------|


post chorus


    ------------------------------------------|
    ----16-16b-r----------15-15b-r------------|
    ----------------13-----------------12-----|
    ------------------------------------------|
    ------------------------------------------|
    ------------------------------------------|

   ----6fb----6-------6--------6-------6------6--------6--------------|
   ----9fb--------9--------9-------9-------9------9--------9r---------|
   -------------------------------------------------------------------|
   -------------------------------------------------------------------|
   -------------------------------------------------------------------|
   -------------------------------------------------------------------|

  ...a revolution, oooo


  ----------------------|
  ----------------------|
  ----------------------|
  ----------------------|
  --1-1-1-1/-8-8-8-8----|
  ----------------------|
Tap to rate this tab
# A B C D E F G H I J K L M N O P Q R S T U V W X Y Z