Guitaretab - guitar tabs
Song name
# A B C D E F G H I J K L M N O P Q R S T U V W X Y Z

Garbage - Cant Seem To Make You Mine tab

Cant Seem To Make You Mind

Tuning: E A D G B E


INTRO
|-6----1----3--------|
|-6----1----3--------|
|-7----2----3--------|
|-8----3----5--------|
|-8----3----5--------|
|-6----1----3--------|


VERSE
|-6----1----3--------|
|-6----1----3--------|
|-7----2----3--------|
|-8----3----5--------|
|-8----3----5--------|
|-6----1----3--------|

 Lead fill
|-------------------|
|-----11-13~~gb15~~-|
|-------------------|
|-/12---------------|
|-------------------|
|-------------------|

[ Tab from: http://www.guitaretab.com/g/garbage/72427.html ]
CHORUS
          x3
|-6----6----|------1-1-1-1-1-1-1-1-|
|-7----6----|-5----1-1-1-1-1-1-1-1-|
|-8----6----|-5----2-2-2-2-2-2-2-2-|
|-8----8----|-5----3-3-3-3-3-3-3-3-|
|-6----8----|-3----3-3-3-3-3-3-3-3-|
|------6----|------1-1-1-1-1-1-1-1-|


VERSE 2 - Same


INTERLUDE
|-6----1----3--------|
|-6----1----3--------|
|-7----2----3--------|
|-8----3----5--------|
|-8----3----5--------|
|-6----1----3--------|

 Lead fill
|------------|
|----11~~~~--|
|------------|
|-/12--------|
|------------|
|------------|


CHORUS 2 - Same


VERSE 3 - Same


OUTRO - Guitars tacet

Endding
|-------------------|
|-----11-13~~gb15~~-|
|-------------------|
|-/12---------------|
|-------------------|
|-------------------|
Related for Cant Seem To Make You Mine tab
×
Best way to learn
"Cant Seem To Make You Mine"