Song name
# A B C D E F G H I J K L M N O P Q R S T U V W X Y Z

Garbage - Trick Is To Keep Breathing tab

Highlighted       Show chord diagrams
Band: Garbage
Song Title: The Trick Is To Keep Breathing
Tuning: Normal


The chords throughout are implied chords that are played by keyboards


INTRO

       Cm    Eb    Cm
E|-----3-----6-----3-----|
B|-----4-----8-----4-----|
G|-----5-----8-----5-----|
D|-----5-----8-----5-----|
A|-----3-----6-----3-----|
E|-----------------------|

Verse1:
The chords throughout are implied chords that are played by keyboards

   Cm    Eb    F
E|-3-----6-----8-----|
B|-4-----8-----10----|
G|-5-----8-----10----|
D|-5-----8-----10----|
A|-3-----9-----8-----|
E|-------------------|

Verse 1:

      Cm (not)            Eb (after girl)
She's not the kind of girl

     Cm (likes)             Eb (after world)
Who likes to tell the world

Cm (about)         Eb (feels)         F (after self)  Eb
About the way she feels about herself

    Cm (takes)     Eb (time) Cm (making)        Eb (after mind)
She takes a little time in   making up her mind

    Cm (doesn't)    Eb (fight)              F (after tide)	Eb
She doesn't want to fight against the tide


Chords used for the chorus:

      Gm   Bb    Dm    F
E|----3----1-----5-----1-----|
B|----3----3-----6-----1-----|
G|----3----3-----7-----2-----|
D|----5----3-----7-----3-----|
A|----5----1-----5-----3-----|
E|----3----------------1-----|

Clean guitar in background of the chorus.
E|-----------------------------------|-------5------------|
B|-----------8-----------6-------6---|---8------------6---|
G|-------7-----------5---------------|-----------7--------|
D|---5-----------5-----------5-------|--------------------|
A|-----------------------------------|--------------------|
E|-----------------------------------|--------------------|

E|---5-----------5-------------------|-------5-----------|
B|-----------6-----------6---8-------|---8-----------6---|
G|-------7-----------7-----------7---|-----------5-------|
D|-----------------------------------|-------------------|
A|-----------------------------------|-------------------|
E|-----------------------------------|-------------------|

Chorus 1 :

Gm (lately)       Bb                Dm (only)	F
Lately 			I'm not the only one

Gm (I)  Bb (say)        Dm (anyone)		F
I  	say never trust anyone

Gm (always)        Bb (has)            Dm (after down)
Always the one who has to drag her down

Gm (maybe)                Bb (want)             Dm (after around)	F
Maybe you'll get what you want this time around


Verse 2:

      Cm (bear)              Eb (after truth)
Can't bear to face the truth

   Cm (sick)            Eb (after move)
So sick he cannot move

    Cm (when)        Eb (takes)          F (after you)
And when it hurts he takes it out on you


Chorus 2:

Twards the end of the second verse there is a background lyric "DO DO DO". You can play 
melody like this.

Fill Riff C
E|-------------------------------|
B|---6---4---3---1-------1---3---|
G|-------------------3-----------|
D|-------------------------------|
A|-------------------------------|
E|-------------------------------|

   Gm (lately)       Bb                Dm (only)	F
Lately 			I'm not the only one

Gm (I)  Bb (say)        Dm (anyone)		F
I  	say never trust anyone

Gm (always)        Bb (has)            Dm (after down) (Fill 
C)
Always the one who has to drag her down

Gm (maybe)                Bb (want)             Dm (after 
(Fill Riff C)
Maybe you'll get what you want this time around

F (the)              Eb (breathing)     F
The trick is to keep breathing

                     Eb (breathing) 	F
The trick is to keep breathing

Verse 3:

    Cm (knows)            Eb (heart)
She knows the human heart

    Cm (how)              Eb (stars)
And how to read the stars

    Cm (everything)     Eb (about)          F	Eb
Now everything's    	about to fall apart

  Gm (won't)             Bb (going)           Dm (afer down)	F
I won't be the one who's going to let you down

Gm (maybe)                Bb (want)            Dm (after 
F
Maybe you'll get what you want this time around (the trick is to keep breathing)

  Gm (won't)                  Bb (after going)  	Dm (down)	F
I won't be the one who's going to let you 		down

Gm (baby)                Bb (want)             Dm (after around)
Baby you'll get what you want this time around (the trick is to keep breathing)


For the outro there are four chords Gm Bb Dm F listen to the song for the changes.
                     Gm (breathing)     Bb
The trick is to keep breathing

                     Dm (breathing)	F
The trick is to keep breathing

                     Gm (breathing)     Bb
The trick is to keep breathing

                     Dm (breathing)	F
The trick is to keep breathing

                     Gm (breathing)     Bb
The trick is to keep breathing

                     Dm (breathing)	F
The trick is to keep breathing

                     Gm (breathing)     Bb
The trick is to keep breathing
Tap to rate this tab
# A B C D E F G H I J K L M N O P Q R S T U V W X Y Z