Song name
# A B C D E F G H I J K L M N O P Q R S T U V W X Y Z

Garbage - Hammering In My Head tab

Highlighted       Show chord diagrams
Band: Garbage
Song Title: Hammering In My Head
Tuning: Eb Ab Db Gb Bb Eb

A bit of info on this song. It has tons of looops, random sounds, beats, guitar parts and 

drums everywhere. There are a ton of wee little riffs ill tried to put them in.

Chords used for this song. 

        Gm    F/G   Eb    Bb    F     Cm
Eb|-----3-----0-----6-----1-----1-----3-----|
Bb|-----3-----1-----8-----3-----1-----4-----|
Gb|-----3-----2-----8-----3-----2-----5-----|
Db|-----5-----3-----8-----3-----3-----5-----|
Ab|-----5-----X-----6-----1-----3-----3-----|
Eb|-----3-----3-----------------1-----------|

Intro/Main Riff "Riff A"
This riff is used throughout the song. It will be known as Riff A. Play riff four times.

Eb|-----------------------|-------------------------|
Bb|-------------11--------|---13-----13---14---11---|
Gb|---12---12--------12---|-------------------------|
Db|-----------------------|-------------------------|
Ab|-----------------------|-------------------------|
Eb|-----------------------|-------------------------|

Guitar Fill Riff B

Eb|---------------------------|--------------------------------|
Bb|---15--------15-b-1/2-15---|--------15--------15-b-1/2-15---|
Gb|--------12-----------------|---12--------12-----------------|
Db|---------------------------|--------------------------------|
Ab|---------------------------|--------------------------------|
Eb|---------------------------|--------------------------------|

Verse 1:

[Gm]I'm stressed but you're frees[F/G]tyle 
[Eb]I'm overworked but I'm under[F/G]sexed 
[Gm]I must be made of [F/G]concrete 
[Eb]I sign my name across[F/G] your chest 

[Gm]Give out the same old answers[F/G]
[Eb]I trot them out for the rel[F/G]atives 
[Gm]Company tried and test[F/G]ed 
[Eb]I use the ones that I love the best [F/G]

[Bb]Like an animal [F]you're [Gm]moving over me[F]
Like an animal[Bb] [F]you're [Gm]moving over me 

[Gm]When did I get per[F/G]verted 
[Eb]I can't remember your name 
[Gm]I'm growing intro[F/G]verted 
[Eb]You touch my hand but it's not[F/G] the same 

[Gm]This was so unexpected [F/G]
[Eb]I never thought I'd get caught [F/G]
[Gm]Play boomerang with your de[F/G]mons 
[Eb]Shoot to kill and you'll pop[F/G] them off 
BANG! BANG! 

[Bb]Like an animal [F]you're [Gm]moving over me[F]
Like an animal[Bb] [F]you're [Gm]moving over me 

Fill Riff C
Listen to song for changes this is a keyboard part for guitar.

Eb|---11---10------------------|
Bb|-------------10---11--------|
Gb|-----------------------12---|
Db|----------------------------|
Ab|----------------------------|
Eb|----------------------------|

You should be sleeping my love 
Tell me what you're dreaming of 
[Gm]You should be [F]sleeping my love [Eb][F]
[Gm]Tell me what [F]you're dreaming of [Eb][F]


You should be sleeping my lover 
Tell me what you're dreaming of 
You should be sleeping my lover 
Tell me what you're dreaming of 

[play intro riff here]
I knew you were mine for the taking 
I knew you were mine for the taking 
Knew you were mine for the taking 
When I walked in the room 

I knew you were mine for the taking 
I knew you were mine for the taking 
Your eyes light up 
When I walk in the room 

Chords for this section are Gm F Eb listen to song for changes. 

A hammering in my head don't stop 
In the bullet train 
From Tokyo to Los Angeles 
I'm leaving you behind 
A flash in the pan 
A storm in a teacup 
A needle in a haystack 
A prize for the winning 
A dead for the raising 
A catch for the chasing 
A jewel for the choosing 
A man for the making in this blistering heat 

Sweat it all out 
Sweat it all out 
In your bedroom eyes and your baby pouts 
Sweat it all out 
In our electric storms and our shifting sands 
Our candy jars and our sticky hands 

Sweat it all out 
Sweat it all out 
Sweat it all out 
Sweat it all out 
Sweat it all out 
Sweat it all out 

Don't forget what I wrote you then 
And don't forget what I told you then 
And don't forget that I meant to win 
And don't forget your ventolin 
So a hammering in my head don't stop 
In the bullet train from Tokyo to Los Angeles 
Tap to rate this tab
# A B C D E F G H I J K L M N O P Q R S T U V W X Y Z