Song name
# A B C D E F G H I J K L M N O P Q R S T U V W X Y Z

Garbage - Never Be Free tab

Band: Garbage
Song Title: Never Be Free
Tuning: Drop D


Chords Used For This Song

    G5    A5   A#5     C5    F5
E|--------------------------------|
B|--------------------------------|
G|--------------------------------|
D|--------------------------------|
A|---5-----7-----8-----10-----3---|
D|---5-----7-----8-----10-----3---|

Octaves Used For This song
I will note them as OE (Octave E)

     OE    OF    OG 
E|--------------------|
B|--------------------|
G|---9-----10----12---|
D|---X-----X-----X----|
A|---7-----8-----10---|
D|--------------------|


Song Starts

youll never be free
youll never be free

Guitar I:
This part is repeated 7 times before verse starts.
E|-----------------------------|
B|-----------------------------|
G|-----------------------------|
D|-----------------------------|
A|-------5-----4---0-----------|
D|---0-----------------3---2---|

Guitar II:
This part is repeated 2 times before verse starts.

Play The Octave like this. Listen To Song For Rhythmn
[OE] X6	[OF] X6	[OG] X12
[OE] X6	[OF] X6	[OG] X12

Verse 1:
(Play Guitar Part I 16 times for this part)

This iss the place where dreams begin
I wait right here for you, my friend
I shiver underneath your skin
A brazen thief who walks right in


Change Up:

[G5]You can beat yourself up to the [A5]beat of a drum

You can [A#5]drink til you drop, til you cant stand up

[G5]And it tastes so [A5]sweet, it [A#5]tastes so [C5]sweet

Chorus:
(Play Guitar Parts I Or II)

youll never forgive me, youll never be free
you might as well kill me, youll never be free
youll never forgive me, youll never be free
you might as well kill me, youll never be free

Verse 2:
(Play Guitar Parts I Or II Or III LeadListen To Song For Changes)

Guitar III Lead:
E|---------------|-----------------|-------------------|
B|---------------|-----------------|-------------------|
G|-------5-------|---------5-------|---------5---------|
D|---------7-5---|-----------7-5---|-----------7-5-----|
A|---8-8---------|---8-7-7---------|---8-8-5-------8---|
D|---------------|-----------------|-------------------|

Verse 2:
(Play Guitar III Lead)

Ill be your master heroine
Your mothers milk, your adrenaline
Are you a hunter just like me?
A lot of heart, a little crazy


Change Up:

[G5]You can beat yourself up to the [A5]beat of a drum

You can [A#5]drink til you drop, til you cant stand up

[G5]And it tastes so [A5]sweet, it [A#5]tastes so [C5]sweet

Chorus:
(Play Guitar Parts I Or II Or III)

youll never forgive me, youll never be free
you might as well kill me, youll never be free
youll never forgive me, youll never be free
you might as well kill me, youll never be free

No Gutiar Here:
(Just Random Noise)
Your house, your room, your mouth, your bed
Your ear, your heart, your veins, your blood
In your house, your room, your mouth, your bed
Your ear, your heart, your veins, your blood

(Play Guitar III Lead)

Youll never be free
Youll never be, never be free
Youll never be free
Youll never be, never be free

Youll never forgive me
You might as well kill me
Tap to rate this tab
# A B C D E F G H I J K L M N O P Q R S T U V W X Y Z