Guitaretab - guitar tabs
Song name
# A B C D E F G H I J K L M N O P Q R S T U V W X Y Z

Garbage - April Tenth tab

Artist - Garbage
Album - Shut Your Mouth single (B-side)
Year - 2002

This is a pretty simple guitar part that is repeated throughout the song.

Guitar 1
[ Tab from: ]
  Intro x 4   Verse  x 18                                  x 2
E |-12----||--13-|--13-|--12-|--12----||--13-|--13-|--12-|--12---||
B |-10----||--11-|--11-|--10-|--10----||--11-|--11-|--10-|--13---||
G |-10---o||--10-|--10-|--10-|--10---o||--10-|--10-|--10-|--10--o||
D |------o||-----|-----|-----|-------o||-----|-----|-----|------o||
A |-------||-----|-----|-----|--------||-----|-----|-----|-------||
E |-------||-----|-----|-----|--------||-----|-----|-----|-------||

Fill (synth arranged for guitar)

Play with the rhythm here - sometimes A (G-14) is played with two 16th notes instead of 
8th note and sometimes C (B-13) is played twice.

E |-------13-----|
B |----13----15--|
G |-14-----------|
D |--------------|
A |--------------|
E |--------------|
Related for April Tenth tab