Guitaretab - guitar tabs
Song name
# A B C D E F G H I J K L M N O P Q R S T U V W X Y Z

Garbo - Driving Miss Mia tab

Lovely song, and not very hard once you get your fingers into place

Should be perfect:

Main riff:

e /---------------------------------/--------------------------------/
b /---------------------------------/--------------------------------/
g /----------9---------9-----9------/----------7--------7-----7------/
d /------7-------7-------6-7---7----/------5-------5------4-5---5----/
a /--9---------------------------9--/--7--------------------------7--/
e /------------------9--------------/------------------7-------------/


Bridge:
[ Tab from: http://www.guitaretab.com/g/garbo/71101.html ]
e /---------------------------------/--------------------------------/
b /----------0--------------0-------/----------0---------------0-----/
g /---------11-------------11-------/----------6---------------6-----/
d /------9-------9------9-------9---/------4-------4-------4-------4-/
a /--10-------------10--------------/--5---------------5-------------/
e /---------------------------------/--------------------------------/


Chorus:

e /----------0--------------0-------/----------0---------------0-----/
b /------0-------0------0-------0---/------0-------0-------0-------0-/
g /---2--------------2--------------/---2--------------2-------------/
d /---0-----------------------------/---3----------------------------/
a /---------------------------------/---5----------------------------/
e /---3-----------------------------/--------------------------------/

e /----------0--------------0-------/----------0--------------1-0----/
b /------3-------3------3-------3---/------3-------3-------3-------3-/
g /---0--------------0--------------/---0--------------2-------------/
d /---2--------------0--------------/---2--------------0-------------/
a /---0--------------2--------------/---3----------------------------/
e /---------------------------------/--------------------------------/

~Havoc

Corrections & Comments --> t_schytt@hotmail.com
Advertisement will be closed in 10 seconds