Song name
# A B C D E F G H I J K L M N O P Q R S T U V W X Y Z

Gardenian - Selfproclaimed Messiah tab

                        MY FIRST TAB!!! made it alone :3
           another gardenian tab email at : joseignacio1996@hotmail.com

 --------------|H: slide
---------------| : Hammer-on


INTRO :

E |----------------------------------------|----------------------------------------|
H |----------------------------------------|----------------------------------------|
G |----------------------------------------|----------------------------------------|
D |----------------------------------------|----------------------------------------|
A |---5--5^6--3^5--5--5^6^5---7^8--|--5--5^6--3--5--1-1-1h3 0 (0)-------------------|
E |-0-------------------------------------| 0---------------------------------------|  x6
POST-CHORUS :
E |----------------------------------------|-----------------------------------------|
H |-------------------------------5h4----|------------------1-1-1h3 0 (0)------------|
G |---5--5h6--3h5--5--5h6------------|--5--5h6--3h5----------------------------------|
D |----------------------------------------|-----------------------------------------|
A |----------------------------------------|-----------------------------------------|
E |-0--------------------------------------| 0---------------------------------------|  x2

CHORUS :

E |----------------------------------------|---------------------------------------|
H |----------------------------------------|---------------------------------------|
G |----------------------------------------|---------------------------------------|
D |--------------------------------5h4---|-----------------------------------------|
A |---5--5^6--3^5--5--5^6^5----------|--5--5^6--3--5--1-1-1h3 0 (0)----------------|
E |-0--------------------------------------| 0-------------------------------------|
Tap to rate this tab
 
# A B C D E F G H I J K L M N O P Q R S T U V W X Y Z