Song name
# A B C D E F G H I J K L M N O P Q R S T U V W X Y Z

Gardenian - Doom And Gloom tab

someone want to help me out with this maybe? anyone care? it seems like I am posting this to myself :D


	Gardenian	
	Doom and Gloom	
	Sindustries
	Tabbed by: Jeff C.


Tune down 2 1/2 steps: (BEADF#B)

* - palm mute
/ - slide up
\ - slide down
h - hammeron
p - pulloff
() - ghost note (let ring)
N.H - natural harmonic
A.H - artificial harmonic

Intro:


B ||--------------------|------------|------------|------------|------------------------------------------||
F#||--------------------|------------|------------|------------|------------------------------------------||
D ||--------------------|-4-4-4\3----|-5-5-5\4----|-9-9-9\8----|--11-9---------------------------------------------------
A ||--4-4----4---4---4--|-x-x-x-x-5\4|-x-x-x-x----|-x-x-x-x----|-------12-12h14-15\6~------4~-----------------------------------------||
E ||--x-x----x---x---x--|-2-2-2\1-x-x|-3-3-3\2----|-7-7-7\6----|------------------------------------------------------------||
B ||--0h2--2-2-2-2-2-2-2|---------3\2|---------3-0|---------3-2|---------------------------------------------------||
           *   *   *   *                       * *              

   



Verse: 
                                                                  A.H
B ||-----------------------------------------------------------------------------------------||
F#||-----------------------------------------------------------------------------------------||
D ||--------------------------4--3---------------------------5\4-----------------------------||
A ||--------------------------x--x---------------------------x-x-----------------------------||
E ||--4-----5-------4---------2--1---4-----5-------4---------3\2-----------------------------||
B ||--2-0-0-3-0-0-0-2-0-0-0-0--------2-0-0-3-0-0-0-2-0-0-0-0-----3b(1/4)~--------------------||
        * *   * * *   * * * *          * *   * * *   * * * *



Into Chorus:

B ||-----------------------------------------------
F#||-----------------------------------------------
D ||-----------------------------------------------
A ||-----4-3---3---3---3---------------------------
E ||-----x-x---x---x---x---------------------------
B ||-0-0-2-1-1-1-1-1-1-1-1-------------------------
     * *     *   *   *   *


Chorus chords are:

B ||-2---4-5-----0-----2----
F#||-2---4-5-----0-----2----
D ||-3---5-6-----1-----3----
A ||-4---6-7-----2-----4----
E ||-4---6-7-----2-----4----
B ||-2---4-5-----0-----2----


the guitarist arpeggiates these, i just haven't tabbed it yet.

This was my first crack at a gardenian song, considering no one else 
anywhere on the net has tabbed a song off sindustries, let me know
if you can help me out, I'm going to be correcting this, so if your 
interested, keep looking for updates.
Tap to rate this tab
# A B C D E F G H I J K L M N O P Q R S T U V W X Y Z