Song name
# A B C D E F G H I J K L M N O P Q R S T U V W X Y Z

Gareth Asher - Feel Like Falling tab

-------------------------------------------------------------------------------
			 Feel Like Falling - Gareth Asher
-------------------------------------------------------------------------------
Website: www.garethasher.com

Tabbed by: khockey981@aol.com
Email: khockey981@aol.com

If you have any question or comments e-mail me or just post on the comments for this 
 The whole song was transcribed by ear and is fairly easy to play and follow along with.  
you.

Tuning: EADGBe (Standard Tuning)

CAPO: 2nd Fret (all chords relative to capo)

Intro/Verse:
e|--3--------3---------------------------------------------------------------|
B|--3-----3--3---------------------------------------------------------------|
G|--0--0h2--0----------------------------------------------------------------|
D|--2-----0--2--0h2----------------------------------------------------------|
A|--2--------3---------------------------------------------------------------|
E|--0------------------------------------------------------------------------|

Pre-Chorus:
e|--2--3---------------------------------------------------------------------|
B|--3--3---------------------------------------------------------------------|
G|--2--0---------------------------------------------------------------------|
D|-----2---------------------------------------------------------------------|
A|-----3---------------------------------------------------------------------|
E|---------------------------------------------------------------------------|

Chorus:
e|--3-------3----------------------------------------------------------------|
B|--3----3--3----------------------------------------------------------------|
G|--0--0h2--0----------------------------------------------------------------|
D|--0----0--2--0h2-----------------------------------------------------------|
A|--2-------3----------------------------------------------------------------|
E|--3------------------------------------------------------------------------|

Interlude:
e|--------0--2--------1--2---------------------------------------------------|
B|--1--1--0--3--1--1--3--3---------------------------------------------------|
G|--2--0--0--2--2--0--2--2---------------------------------------------------|
D|--2--2--2-----2--2---------------------------------------------------------|
A|-----3--2--------3---------------------------------------------------------|
E|--------0------------------------------------------------------------------|

Song Order:
Intro
Verse
Pre-Chorus
Chorus
Verse
Pre-Chorus
Chorus
Interlude
Chorus
Intro/Verse

| /  slide up
| \  slide down
| h  hammer-on
| p  pull-off
| ~  vibrato
| +  harmonic
| x  Mute note
===============================================================================
Tap to rate this tab
# A B C D E F G H I J K L M N O P Q R S T U V W X Y Z