Guitaretab - guitar tabs
Song name
# A B C D E F G H I J K L M N O P Q R S T U V W X Y Z

Gargantua Soul - Calling My America tab

Tabbed by John Fox

Band  : Guargantua Soul
Album : Impact ('2001)
Song  : Calling My America (Track #1/11)

Standard Tuning (E A D G B E)

[ Tab from: http://www.guitaretab.com/g/gargantua-soul/31972.html ]
Main Riff: 
Guitar 1 
|------------------------------------------------- 
|------------------------------------------------- 
|---8\-----11-11-11--11--11--11---8\--11---------- 
|------------------------------------------------- 
|---7\-----9--9--9---9---9---9----7\--9----------- 
|------------------------------------------------- 
  


Verse: 
Guitar 1 
|------------------------------------------------- 
|------------------------------------------------- 
|--------------------------------3-3--3----------- 
|--------------------------------3-3--3----------- 
|------------------------------------------------- 
|--3333p---3---333p----3333p--------------------