Song name
# A B C D E F G H I J K L M N O P Q R S T U V W X Y Z

Garigoles - Vampiro Garces tab

-------------------------------------------------------------------------------
			VAMPIRO GARCES - Garigoles
-------------------------------------------------------------------------------
Tabbed by:Rafa88offspring
Email:rafa88offspring@hotmail.com

Tuning:Standard (EADgbe)

Esta rola de garigoles viene en el disco de "No esperes por el caos, este
llega cada fin de semana", y es una de las más famosas del grupo
www.frantica.com/garigoles/ 

Intro
Guitarra 1 mientras la guitarra 2 toca E5 - C5 - G5
e|--------------------|
B|--------------------|
G|-00000-4p0-5p0-4p0--|
D|--------------------|
A|--------------------|
E|--------------------|

Versos (xnumero son las veces que se toca el acorde)
e|-------------------------|
B|-------------------------|
G|-------5-----------------|
D|-2-----5-x8--5-----7-----|
A|-2-x8--3-----5-x8--7-x2--|
E|-0-----------3-----5-----|

entre verso y verso la guitarra 1 toca
e|-----------------------------------|
B|-----------------------------------|
G|-0-4-0-4-0-4-5-4--0-4-0-4-0-4-7-4--|
D|-----------------------------------|
A|-----------------------------------|
E|-----------------------------------|

Coro
tocan estos acordes
e|----------------|
B|----------------|
G|-----5-------7--|
D|-2---5---5---7--|
A|-2---3---5---5--|
E|-0-------3------|

"Yo quiero morder, Tu cicratiz al cuello"
e|--------------------------------------------|
B|--------------------------------------------|
G|-5-----7-----9------5-----7-----------7-----|
D|-5-x5--7-x5--9-x10--5-x5--7-x5--5-----7-x5--|
A|-3-----5-----7------3-----5-----5-x5--5-----|
E|--------------------------------3-----------|

termina eso con
e|-----------|
B|-----------|
G|-99-55-77--|
D|-99-55-77--|
A|-77-33-55--|
E|-----------|

Solo
Guitarra 2 toca
e|----------------------------|
B|----------------------------|
G|-9------------12------------|
D|-9-x8--10-----12-x8--12-----|
A|-7-----10-x8--10-----12-x8--|
E|-------8-------------10-----|

Guitarra 1
e|----------------------------------------------------------------------|
B|-------------------------------------------------------3-1-0----------|
G|-4-2-----------4-2---------4-2-----7-7-7-9-7-5-4-5-4-0-------2-0-2-0--|
D|-----5-4-5-2-0-----5-4-5-2-----5-4------------------------------------|
A|----------------------------------------------------------------------|
E|----------------------------------------------------------------------|

e|---------------------------------------------------|
B|---------------------------------------------------|
G|-4-5-4-5-7-7-7-4-1212121212-14141414-151515-15b17--|
D|---------------------------------------------------|
A|---------------------------------------------------|
E|---------------------------------------------------|


| /  slide up
| \  slide down
| h  hammer-on
| p  pull-off
| ~  vibrato
| +  harmonic
| x  Mute note
===============================================================================
Tap to rate this tab
# A B C D E F G H I J K L M N O P Q R S T U V W X Y Z