Song name
# A B C D E F G H I J K L M N O P Q R S T U V W X Y Z

Garotos Podres - Vou Fazer Coco tab

-------------------------------------------------------------------------------
			   Vou Fazer Coco - Garotos Podres
-------------------------------------------------------------------------------
Tabbed by: FabioS_
Email: fabiosinoara@gmail.com

Tuning: Standard



Intro/solo
e|-----------------------------------------|
B|-----------------------------------------|
G|-----------------------------------------| x2
D|-----77----77----77----77--99-77-555-----|
A|--55----55----55----55-----99-77-555-----|
E|---------------------------77-55-333-----|

main riff
e|-----------------------------------------|
B|-----------------------------------------|
G|-----------------------------------------|
D|--7777777777-99-77-55--------------------|
A|--5555555555-99-77-55--------------------|
E|-------------77-55-33--------------------|

every 5th time you do:

e|-----------------------------------------|
B|-----------------------------------------|
G|-----------------------------------------|
D|--7777777777-99-77-5555555555------------|
A|--5555555555-99-77-5555555555------------|
E|-------------77-55-3333333333------------|

that's it! I guess it's right, if you have any correction, please send me an email. Thank you!
Tap to rate this tab
# A B C D E F G H I J K L M N O P Q R S T U V W X Y Z