Song name
# A B C D E F G H I J K L M N O P Q R S T U V W X Y Z

Garrison Starr - Superhero tab

-------------------------------------------------------------------------------
                             Superhero - Garrison Star (http://garrisonstarr.com/)

-------------------------------------------------------------------------------
Tabbed by: Dan Shookowsky
E-mail:

Tuning: Standard (Capo 6)

First tab submission.  I tried to pick this up off the album version using an iRig with the 
no voice option on.  The mix is funny and some of the vocals remain and some of the guitar is lost.

Fig. 1
e|---------------------------------------------------------------------------|
B|---------------------------------------------------------------------------|
G|---------------------------------------------------------------------------|
D|---------------------------------------------------------------------------|  x2
A|--0--0--0--0---------------------------------------------------------------|
E|---------------0--0--0--0---1--1--1--1---3--3--3--3------------------------|
 1. We are       ten          years        old.....     
        
Fig. 2
e|---------------------------------------------------------------------------|
B|---------------------------------------------------------------------------|
G|---------------------------------------------------------------------------|
D|--2-----2------------------------------------------------------------------|  x2
A|--0-----0------2-----2-----3------3------5-----5---------------------------|
E|---------------0-----0-----1------1------3-----3---------------------------|
 1. Eardrums     bursting    from the      pressure...
 2. We are       fly-        ing           high...
        
e|---------------------------------------------------------------------------|
B|---------------------------------------------------------------------------|
G|---------------------------------------------------------------------------|
D|---------------------------------------------------------------------------|
A|---3----------------5----------2-------------------------------------------|
E|---1----------------3----------0-------------------------------------------|
     Won't you come   away with  me 
     Back to Fig. 2.2 then chorus
Chorus
e|---------------------------------------------------------------------------|
B|---------------------------------------------------------------------------|
G|---------------------------------------------------------------------------|
D|---------------------------------------------------------------------------|
A|---3--------------------2--------5-----------------------------------------| x2
E|---1--------------------0--------3-----------------------------------------|
     I don't ever want to leave the stage...
Bridge
e|---------------------------------------------------------------------------|
B|---------------------------------------------------------------------------|
G|---------------------------------------------------------------------------|
D|---------------------------------------------------------------------------|
A|--2---------------3---------5----------------------------------------------|
E|--0---------------1---------3----------------------------------------------|
    Touch my cape.  I'll take you....

************************************

| /   slide up
| \   slide down
| h   hammer-on
| p   pull-off
| ~   vibrato
| +   harmonic
| x   Mute note
| b   Bend
| pb  Pre-bend
| br  Bend release
| pbr Pre-bend release
| brb Bend release bend

************************************
Tap to rate this tab
# A B C D E F G H I J K L M N O P Q R S T U V W X Y Z