Garrobos - Sacude El Craneo tab

x mute 

hello this is my second tab hope you enjoy and find it usefull

 Riff 1

|----------------------------------------------------------|
|----------------------------------------------------------|
|----------------------------------------------------------|
|-7-7-7-7-7-7-3-4-3-x-x-x----------------------------------|               
|-7-7-7-7-7-7-3-4-3-x-x-x----------------------------------|
|-5-5-5-5-5-5-1-2-1-x-x-x----------------------------------|

Riff 2

|-----------------------------------------------------------|
|-------------5-5-------------------------------------------|
|-------------3-3-5-5-5-------------------------------------|    
|-5-5-5-5-5-5-----5-5-5-------------------------------------|      
|-5-5-5-5-5-5-----3-3-3-------------------------------------|
|-3-3-3-3-3-3-----------------------------------------------|


Riff 3

|----------------------------------------------------------|
|----------------------------------------------------------|
|----------------------------------------------------------|
|-7-x-x-x-x-x-5-x-x-x-x-x-5-x-x-x-x-x-5-5-6-5--------------|
|-7-x-x-x-x-x-5-x-x-x-x-x-5-x-x-x-x-x-5-5-6-5--------------|
|-5-x-x-x-x-x-7-x-x-x-x-x-7-x-x-x-x-x-7-7-8-7--------------|

Riff 4 
                                                                          
|-----------------------------------------------------------------|
|-----------------------------------------------------------------|
|-----------------------------------------------------------------|
|-5-x-x-x-x-x-5-x-x-x-x-x-5-x-x-x-x-x-5-5-------------------------|
|-5-x-x-x-x-x-5-x-x-x-x-x-5-x-x-x-x-x-5-5-------------------------|
|-7-x-x-x-x-x-7-x-x-x-x-x-7-x-x-x-x-x-7-7-------------------------|

RIFF 1 X2
RIFF 2 X3
RIFF 3 X4
RIFF 1 X2
RIFF 2 X3
RIFF 3 X4
RIFF 4 X4
RIFF 1 X2
RIFF 2 X3

http://www.myspace.com/garrobosoficial


Tap to rate this tab
 
# A B C D E F G H I J K L M N O P Q R S T U V W X Y Z