Song name
# A B C D E F G H I J K L M N O P Q R S T U V W X Y Z

Garth Brooks - If Tomorrow Never Comes tab

Help us improve GuitareTab! Take a short survey!
-------------------------------------------------------------------------------
			 If tomarrow never comes - Garth Brooks
-------------------------------------------------------------------------------
Tabbed by:Austin
Email:sublimedude131@aol.com

Tuning:Regular
Chorus:
e|---------0----------------------2-----------------------------------------|
B|-------1--------1---------3----------3------------1--------0--------------|
G|------2-------2---------2----2-----2----------0--------0-----------0------|
D|-----2-----------------0----------------------------------------0---------|
A|----0---------------------------------------------------------------------|
E|------------------------------------------3------------------3------------|
let chords ring
e|--------------------------------------------------------------------------|
B|--------------------------3------------1--0------0------------------------|
G|---------------0--------------------------0---------2----0----------------|
D|---0-----0---------2/4--------0----2------0--------------------4----------|
A|------0-----------------------------------2-------------------------------|
E|---3--------------------------------------3-------------------------------|
Related for If Tomorrow Never Comes tab