Song name
# A B C D E F G H I J K L M N O P Q R S T U V W X Y Z

Garth Brooks - If Tomorrow Never Comes tab

If Tomorrow Never Comes - Garth Brooks
Vxj Sweden, July 2013


Intro.

G          Am7              G               (strum)
e:|---------|---------------|---------3-------1*-|
B:|-0-----0-|-0h1/3-----1---|-0---------0---0-0*-|
G:|-----0---|-0-----0-----0-|---0---0-----0---0*-|
D:|---0-----|-0h2/4-0h2-----|-----0-----------0*-|
A:|---------|---------------|-----------------1*-|
E:|-3-------|---------------|-3---------------3*-|


Verse.

G            Am                D                 C/G        G
e:|----------|---------0-------|------0h2---------|---------|---------|
B:|----------|-------1-------0-|-----3----3---3---|-1-------|-0-------|
G:|----------|-----2-------2---|---2--------2---2-|---0---0-|---0---0-|
D:|----------|---2-------2-----|-0----------------|-----2---|-----0---|
A:|----------|-0---------------|------------------|---------|---------|
E:|----------|-----------------|------------------|-3-------|-3-------|

1.Sometimes late at night I lie awake and watch her sleeping
2.And the thought crosses my mind if I never wake up in the morning
3.Cause I've lost loved ones in my life who never knew how much I loved them
4.So I made a promise to myself to say each day how much she means to me

Am/G          G
e:|-----0-----|---------3---------|
B:|-0h1---1---|-0---------0---0---|
G:|-0h2-----2-|---0---0-----0---0-|
D:|-----------|-----0-------------|
A:|-----------|-------------------|
E:|-3---------|-3-----------------|

Am/D           Am             D               C         G         C               G      (strum)
e:|-------0-----|-------------|-------0h2-----|---------|---------|---------3-----|---------1*-|
B:|-----1---1---|-------1-----|-----3-----3---|-1-------|-0-------|-------1---1---|-0-------0*-|
G:|---2-------2-|-----2---0---|---2---------2-|---0---0-|---0---0-|-----0-------0-|---0---0-0*-|
D:|-0-----------|---2-------2-|-0-------------|-----2---|-----0---|-0h2-----------|-----0---0*-|
A:|-------------|-0-----------|---------------|-3-------|---------|---------------|---------1*-|
E:|-------------|-------------|---------------|---------|-3-------|---------------|-3-------3*-|

1.She's lost in peaceful dreams so I turn out the lights and lay there in the dark
2.Would she ever doubt the way I feel about her in my heart
3.Now I live with the regret that my true feelings for them never were revealed
4.And avoid that circumstance where there's no second chance to tell her how I feel


Chorus.

G                 C                                    G
e:|---------------|-------0----------------------0-----|---------------------------------|
B:|---------------|-----1---1---1/3-1----------1---1---|-3-------0-------------0---------|
G:|---------------|---0-------0-------0--0---0-------0-|---0---0---0---0-----0-------0---|
D:|---------------|-------------2/4-----2--------------|-----0-------0-------------0---0-|
A:|-----------0-2-|-3-----------3/5-3------3-----------|-----------------0h2-------------|
E:|---------------|------------------------------------|-3-------3---------------3-------|
  If tomorrow never comes will she know how much I love her

G               D            Am7            D
e:|-------3-----|-------2-----|-------0-----|-------2-----|
B:|-----0---0---|-----3---3---|-1-------1---|-----3---3---|
G:|---0-------0-|---2-------2-|---0-------0-|---2-------2-|
D:|-------------|-0-----------|-----2-------|-0-----------|
A:|-------------|-------------|-0-----------|-------------|
E:|-3-----------|-------------|-------------|-------------|
  Did I try in every way to show her every day

C               G             C       G       (strum)
e:|-------0-----|-------3-----|-------|---------1*-|
B:|-1-------1---|-0-------0---|-1/3\1-|-0-------0*-|
G:|---0-------0-|---0-------0-|-0-----|---0---0-0*-|
D:|-----2-------|-----0-------|-2/4\2-|-----0---0*-|
A:|-3-----------|-------------|-3/5\3-|---------1*-|
E:|-------------|-3-----------|-------|-3-------3*-|
  That she's my only one

Am7 (strum) G/B (strum)   C
e:|-----0-----|-----3-----|-------0------------------0-----|
B:|-----1-----|-----0-----|-----1---1--------1-----1---1---|
G:|-----0-----|-----0-----|---0-------0----0-----0-------0-|
D:|-----2-----|-----0-----|-------------h2-----------------|
A:|-----0-----|-----2-----|-3------------------3-----------|
E:|-----------|-----------|--------------------------------|
  If my time on earth were through

C         D      Bm7           Em       (strum)
e:|-------|-------|-------2-----|---------0*-|
B:|-----1-|-----3-|-----3---3---|---------0*-|
G:|---0---|---2---|---2-------0-|---------2*-|
D:|-------|-0-----|-------------|-------2-2*-|
A:|-3-----|-------|-2-----------|-----2---2*-|
E:|-------|-------|-------------|-2-0-----0*-|
  She must face this world without me

Em         Am7            C             D
e:|---------|-------1-----|-------0-----|-------3p2-----|
B:|---------|-----2---0---|-----1---1---|-----3-----3---|
G:|---------|---2-------2-|---0-------0-|---2---------2-|
D:|---------|-------------|-------------|-0-------------|
A:|---------|-0-----------|-3-----------|---------------|
E:|---------|-------------|-------------|---------------|
  Is the love I gave her in the past gonna be enough to last if

Cadd9           G             C       G       (strum)
e:|-------0-----|-------3-----|-------|---------3*-|
B:|-----3---3---|-----0---0---|-1/3\1-|-0-------0*-|
G:|---0-------0-|---0-------0-|-0-----|---0---0-0*-|
D:|-------------|-------------|-2/4\2-|-----0---0*-|
A:|-3-----------|-------------|-3/5\3-|---------2*-|
E:|-------------|-3-----------|-------|-3-------3*-|
  tomorrow never comes


Verse 3 and 4.


Chorus.


Outro.

G          Am7                          D
e:|---------|-------0-------------0-----|-------0h2----|
B:|---------|-----1---1---------1---1---|-----3-----3*-|
G:|---------|---0-------0-----0-------0-|---2-------2*-|
D:|---------|-------------0h2-----------|-0------------|
A:|---------|-0-------------------------|--------------|
E:|---------|---------------------------|--------------|
  So tell that someone that you love just what you're thinking of

D           C                  C/B     Am7      G
e:|---------|-------0-----------|-------|-------|----------3*-|
B:|---------|-----1---1-------1-|-----1-|-----1-|-----0----0*-|
G:|---------|---0-------0---0---|---0---|---0---|---0---0--0*-|
D:|---------|-------------------|-------|-------|----------0*-|
A:|---------|-3-----------3-----|-2-----|-0-----|----------2*-|
E:|---------|-------------------|-------|-------|-3--------3*-|
  If tomorrow never comes
Tap to rate this tab
# A B C D E F G H I J K L M N O P Q R S T U V W X Y Z