Song name
# A B C D E F G H I J K L M N O P Q R S T U V W X Y Z

Gary Allan - Every Storm Runs Out Of Rain tab

Standard tuning no capo

Intro


(Guitar 1) e--------0--------0------0--------0-------------|
           B------1--------1----------1--------1-----------|
           G----2--------2--------0--------0---------------|
           D-----------3-----------------------------------|
           A--0-----------------3--------------------------|
           E-----------------------------3-----------------|

  --------0--------0------0--------0-------------|
  ------1--------1----------1--------1-----------|
  ----2--------2--------0--------0---------------|
  -----------3-----------------------------------|
  --0-----------------3--------------------------|
  -----------------------------3-----------------|

Verse 1

  --------0--------0------0--------0-------------|
  ------1--------1----------1--------1-----------|
  ----2--------2--------0--------0---------------|
  -----------3-----------------------------------|
  --0-----------------3--------------------------|
  -----------------------------3-----------------|
  So you're standing in the middle of the thunder and lightning

  --------0--------0------0--------0-------------|
  ------1--------1----------1--------1-----------|
  ----2--------2--------0--------0---------------|
  -----------3-----------------------------------|
  --0-----------------3--------------------------|
  -----------------------------3-----------------|

  --------0--------0------0--------0-------------|
  ------1--------1----------1--------1-----------|
  ----2--------2--------0--------0---------------|
  -----------3-----------------------------------|
  --0-----------------3--------------------------|
  -----------------------------3-----------------|
  I know you're feeling like you just can't win but you're trying

  --------0--------0------0--------0-------------|
  ------1--------1----------1--------1-----------|
  ----2--------2--------0--------0---------------|
  -----------3-----------------------------------|
  --0-----------------3--------------------------|
  -----------------------------3-----------------|

(Guitar 2)  Am                           G
          --------0--------0------0--------0--------|
          ------1--------1----------1--------1------|
          ----2--------2--------0--------0----------|
          -----------3------------------------------|
          --0-----------------3---------------------|
          -----------------------------3------------|
          It's hard to keep on keepin on, when you're being pushed around

    Am                         G
  --------0--------0------0--------0-------------|
  ------1--------1----------1--------1-----------|
  ----2--------2--------0--------0---------------|
  -----------3-----------------------------------|
  --0-----------------3--------------------------|
  -----------------------------3-----------------|
  Don't even know which way is up, you just keep spinning down around down

(Chorus)
Am    F           C           G
Every storm runs, runs out of rain
          Am    F           C          G
Just like every dark night, turns into day
Am    F          C         G
Every heartache, will fade away
          Am    F           C           G
Just like every storm runs, runs out of rain

(Guitar 2)  Am       F        C        G
(Guitar 1)--------0--------0------0--------0-------------| X2
          ------1--------1----------1--------1-----------|
          ----2--------2--------0--------0---------------|
          -----------3-----------------------------------|
          --0-----------------3--------------------------|
          -----------------------------3-----------------|

(Verse 2)
Am           F           C                  G                       Am
So hold your head up and tell yourself that there's something more
F        C        G
And walk out that door
Am        F         C        G                    Am
Go find a new rose, don't be afraid of the thorns
F        C        G
Cause we all have thorns
Am
Just put your feet up to the edge
G
Put your face in the wind
Am
And when you fall back down
C
Keep on remembering

(Chorus)
Am    F           C           G
Every storm runs, runs out of rain
          Am    F           C          G
Just like every dark night, turns into day
Am    F          C         G
Every heartache, will fade away
          Am    F           C           G
Just like every storm runs, runs out of rain

Am  C  Am  F  X4

(Bridge)
Am
It's gonna run out of pain
F
It's gonna run out of steam
Am
It's gonna leave you alone
C                (Stop let ring)
Its gonna set you free, set you free

(Chorus)
Am    F           C           G
Every storm runs, runs out of rain
          Am    F           C          G
Just like every dark night, turns into day
Am    F          C         G
Every heartache, will fade away
          Am    F           C           G
Just like every storm runs, runs out of rain

Am  F  C  G  X5 (end on G)
Tap to rate this tab
 
# A B C D E F G H I J K L M N O P Q R S T U V W X Y Z