Gary Allen - Get Off On The Pain tab

Tabbed by:abbott764
Email:abbott764@gmail.com

Tuning:Standard

Intro:G1

e|----------------------------------------------3-----3--|
B|-----3---5-3-3-----3---5-3-3-----3---5-3------3-----3--|
G|-0-0---0-------0-0---0-------0-0---0------0-0---0-0----|
D|-------------------------------------------------------|
A|-------------------------------------------------------|
E|-------------------------------------------------------|
 
Intro:G2

e|--------------------------------------3-----3--|
B|--------------------------------------3-----3--|
G|-----0---4-2-----2h4p2-------------------------|
D|-0-2---------5-3-------5-2--3-2----------------|
A|--------------------------------1--------------|
E|----------------------------------3-3---3-3----|

Intro:G3  One Strum Chords  G D C G

Verse

G
I don't know why I love women
D
That love to do me wrong
C
Don't know why my life sounds like
  G
A heartbroke country song 
G
I ain't really happy 
           D
Unless the sky starts driving rain
C               F       C         G
Maybe I just get off on the pain


G
My whole life I been picking fights
D
There ain't no way to win
      C
Got a hundred scars and should have run aways
    G
Now tattooed on my skin
G
There's a side of me that just won't stop
D
Dancin' in the flame
C               F       C         G
Maybe I just get off on the pain


                      G            D
Cause I love the long shot and the left out lost causes
C                                               G
Hanging out in the back of the pack with the dark horses
G                             D
I ride the wrong road just as fast as I can
C                                   D
God knows there's no one else to blame
    F               C                 G
Sometimes I think I get off on the pain

Solo 1:G1


e|----------------------------------------------3-----3--|
B|-----3---5-3-3-----3---5-3-3-----3---5-3------3-----3--|
G|-0-0---0-------0-0---0-------0-0---0------0-0---0-0----|
D|-------------------------------------------------------|
A|-------------------------------------------------------|
E|-------------------------------------------------------|

Solo 1:G2


e|--------------------------------------------------------|
B|--------------------------------------------------------|
G|-----0---4-2-----2h4p2--------------------------0-----0-|
D|-0-2---------5-3-------5-3--2-3-2---2---------0---0-3---|
A|----------------------------------5---5-----------------|
E|----------------------------------------5-6-3-----------|




Solo 1:G3  G D F C G

G
Wake up every morning 
  D
A thousand miles from home
C
Praying for forgiveness
         G
For this aching in my bones
G
It would be so easy 
   D
To find a better way
C           F         C        D
Oh but I know I'll never change


                      G             D
Cause I love the long shots and the left out lost causes
C                                               G
Hanging out in the back of the pack with the dark horses
G                             D
I ride the wrong road just as fast as I can
C                                   D
God knows there's no one else to blame
    F               C                 G
Sometimes I think I get off on the pain


Solo 2:G1  (2:29)

e|--------------------------------------------------------|
B|-----------------------------------5-6-----------8------|
G|------------------------------pb5r-----7-5--7~~~~-------|
D|--7b-pb7r---3-5-5-3-------3-----------------------------|
A|----------5---------5-3-5---5---------------------------|
E|--------------------------------------------------------|

Solo 2:G2 (2:39)

e|---------------------------------------------|
B|-----8-10-8-12-13-15-12-12-10----13-15-12----|
G|-7-9--------------------------12----------12-|
D|---------------------------------------------|
A|---------------------------------------------|
E|---------------------------------------------|
(G2 Solo Cont.)
e|--13-13----------------------13-------13-------13-------------|
B|--------15-13----15~~~-15-15----15-15----15-15----15----------|
G|--------------15-------------------------------------14-15-12-|
D|--------------------------------------------------------------|
A|--------------------------------------------------------------|
E|--------------------------------------------------------------|

Solo 2:G3  G D C G G D C D

                 G                  D
Cause I love the long shots and the left out lost causes
C                                               G
Hanging out in the back of the pack with the dark horses
G                             D
I ride the wrong road just as fast as I can
C                                   D
God knows there's no one else to blame
F              C          D
I know I'm the only one to blame
F                   C             G
Sometimes I think I get off on the pain

Outro:G1

e|----------------------------------------------3-----3--|
B|-----3---5-3-3-----3---5-3-3-----3---5-3------3-----3--|
G|-0-0---0-------0-0---0-------0-0---0------0-0---0-0----|
D|-------------------------------------------------------|
A|-------------------------------------------------------|
E|-------------------------------------------------------|
 
Outro:G2

e|--------------------------------------3-----3--|
B|--------------------------------------3-----3--|
G|-----0---4-2-----2h4p2-------------------------|
D|-0-2---------5-3-------5-2--3-2----------------|
A|--------------------------------1--------------|
E|----------------------------------3-3---3-3----|

Outro:G3  One Strum Chords  G D C G

Intro:G1

e|-----------------------------------------------3-|
B|-----3---5-3-3-----3---5-3-3-----3---5-3---3-3-3-|
G|-0-0---0-------0-0---0-------0-0---0-------3-3-0-|
D|-------------------------------------------3-3-0-|
A|-----------------------------------------------0-|
E|-----------------------------------------------3-|
 
Intro:G2

e|---------------------------------------3-|
B|-----------------------------------3-3-3-|
G|-----0---4-2-----2h4p2-------------3-3-0-|
D|-0-2---------5-3-------5-2--3-2----3-3-0-|
A|---------------------------------------0-|
E|---------------------------------------3-|

Intro:G3  One Strum Chords  G D C e|-----3-|
                                  B|-3-3-3-|
                                  G|-3-3-0-|
                                  D|-3-3-0-|
                                  A|-----0-|
                                  E|-----3-|




************************************

| /   slide up
| \   slide down
| h   hammer-on
| p   pull-off
| ~   vibrato
| +   harmonic
| x   Mute note
| b   Bend
| pb  Pre-bend
| br  Bend release
| pbr Pre-bend release
| brb Bend release bend
Tap to rate this tab
 
# A B C D E F G H I J K L M N O P Q R S T U V W X Y Z