Guitaretab - guitar tabs
Song name
# A B C D E F G H I J K L M N O P Q R S T U V W X Y Z

Gary Clark Jr - When My Train Pulls In tab

-------------------------------------------------------------------------------
			    When My Train Pulls In - Gary Clark Jr.
-------------------------------------------------------------------------------
Tabbed by:Famous Amos
Email:

Tuning:

e|--------------------------------------------------------------------------|
B|--------------------------------------------------------------------------|
G|--------------------------1------------------------------------1----------|
D|------0------0---0h2------2---------0---------0---0h2----------2----------|
A|--0h2----0h2--------------2-----0h2------0h2-------------------2----------|
E|----------------------0---0------------------------------0-----0----------|
[ Tab from: http://www.guitaretab.com/g/gary-clark-jr/296614.html ]
e|----------------------------------------------------------------------------|
B|----------------------------------------------------------------------------|
G|----------------------------------1-----------------------------------------|
D|-------0--------------------------2-----------------------------------------|
A|---0h2-----0h2--0-----------------2-----------------------------------------|
E|--------------------3p0----0------0-----------------------------------------|



************************************

| /   slide up
| \   slide down
| h   hammer-on
| p   pull-off
| ~   vibrato
| +   harmonic
| x   Mute note
| b   Bend
| pb  Pre-bend
| br  Bend release
| pbr Pre-bend release
| brb Bend release bend

************************************
Related for When My Train Pulls In tab
×
Best way to learn
"When My Train Pulls In"