Song name
# A B C D E F G H I J K L M N O P Q R S T U V W X Y Z

Gary Clark Jr - I Dont Owe You A Thang tab

----------------------------------------------------------------------------
I DON'T OWE YOU A THANG - Gary Clark Jr.
----------------------------------------------------------------------------
Tabbed by: Tome
E-mail: thomas.brubach@gmail.com

This is not 100% complete, but shows some main portions of the song.  He plays it 
slightly different in each performance I've seen.

Tuning: Standard **CAPO ON 5TH**


Main Riff/Intro -3-finger fingerpicking - thumb handles bottom E and D strings
e|-----------0------------------0-----0--------------|
B|-----------------------3---------------------------|
G|---------------------------------------------------|
D|--------2---------2--------------------------------|
A|---------------------------------------------------|
E|----3p0----0--3p0----0-----0-----0-----------------|


Verse -
(He plays it differently in diff videos, basically watered down Main Riff -- you 
alternatively strum an E major chord rhythm w/thumb pulloffs on the E)
e|-----------------------------------------------|
B|-----------------------------------------------|
G|-----------------------------------------------|
D|--------2-------2------------------------------|
A|-----------------------------------------------|
E|----3p0---0-3p0---0---0---0--------------------|


Verse Breakdown Chords
e|-(1)-----3---------------------------------------------------------------|
B|--0------2---------------------------------------------------------------|
G|--2------2---------------------------------------------------------------|
D|--1------2---------------------------------------------------------------|
A|--2------0---------------------------------------------------------------|
E|-------------------------------------------------------------------------|
Tap to rate this tab
# A B C D E F G H I J K L M N O P Q R S T U V W X Y Z