Song name
# A B C D E F G H I J K L M N O P Q R S T U V W X Y Z

Gary Clark Jr - Numb tab

Gary Clark Jr.
“Numb”
Blak and Blu
tabbed by smcclure09@yahoo.com

Drop-D tuning

Main riff:

e--------------------I--------------------|
B--------------------I--------------------|
G--------------------I--------------------|
D----------3---3h5---I--------3~--3h5-----|
A----------3-------5-I----------------3h5-|
D-0-0-0-/5-----------I-0-0-/5-------------|

e--------------------I---------------------|
B--------------------I---------------------|
G--------------------I---------------------|
D----------3---3h5---I----------3~-5/7-----|
A----------3-------5-I-----------------3-5-|
D-0-0-0-/5-----------I-0-0-0-/5------------|


With the exception of the solos, the whole
song is basically variations of the main riff
Tap to rate this tab
# A B C D E F G H I J K L M N O P Q R S T U V W X Y Z